  0
SECTION
  2
HEADER
  9
$ACADVER
  1
AC1032
  9
$ACADMAINTVER
 90
      230
  9
$DWGCODEPAGE
  3
ANSI_932
  9
$LASTSAVEDBY
  1
hyuga-home
  9
$REQUIREDVERSIONS
160
                 0
  9
$INSBASE
 10
0.0
 20
0.0
 30
0.0
  9
$EXTMIN
 10
7.05723495361529
 20
94.11267399999999
 30
-0.0000000000000766
  9
$EXTMAX
 10
830.5742256657152
 20
404.5934653199183
 30
0.0000000000000249
  9
$LIMMIN
 10
0.0
 20
0.0
  9
$LIMMAX
 10
420.0
 20
297.0
  9
$ORTHOMODE
 70
     0
  9
$REGENMODE
 70
     1
  9
$FILLMODE
 70
     1
  9
$QTEXTMODE
 70
     0
  9
$MIRRTEXT
 70
     0
  9
$LTSCALE
 40
0.75
  9
$ATTMODE
 70
     1
  9
$TEXTSIZE
 40
3.5
  9
$TRACEWID
 40
1.0
  9
$TEXTSTYLE
  7
Standard
  9
$CLAYER
  8
0
  9
$CELTYPE
  6
ByLayer
  9
$CECOLOR
 62
   256
  9
$CELTSCALE
 40
1.0
  9
$DISPSILH
 70
     0
  9
$DIMSCALE
 40
1.0
  9
$DIMASZ
 40
3.5
  9
$DIMEXO
 40
2.1
  9
$DIMDLI
 40
10.5
  9
$DIMRND
 40
0.0
  9
$DIMDLE
 40
0.0
  9
$DIMEXE
 40
2.1
  9
$DIMTP
 40
0.1
  9
$DIMTM
 40
0.1
  9
$DIMTXT
 40
3.5
  9
$DIMCEN
 40
0.0
  9
$DIMTSZ
 40
0.0
  9
$DIMTOL
 70
     0
  9
$DIMLIM
 70
     0
  9
$DIMTIH
 70
     0
  9
$DIMTOH
 70
     0
  9
$DIMSE1
 70
     0
  9
$DIMSE2
 70
     0
  9
$DIMTAD
 70
     1
  9
$DIMZIN
 70
    12
  9
$DIMBLK
  1

  9
$DIMASO
 70
     1
  9
$DIMSHO
 70
     1
  9
$DIMPOST
  1

  9
$DIMAPOST
  1

  9
$DIMALT
 70
     0
  9
$DIMALTD
 70
     2
  9
$DIMALTF
 40
0.03937
  9
$DIMLFAC
 40
1.0
  9
$DIMTOFL
 70
     1
  9
$DIMTVP
 40
0.0
  9
$DIMTIX
 70
     0
  9
$DIMSOXD
 70
     0
  9
$DIMSAH
 70
     0
  9
$DIMBLK1
  1

  9
$DIMBLK2
  1

  9
$DIMSTYLE
  2
Dim-ISO-25
  9
$DIMCLRD
 70
     0
  9
$DIMCLRE
 70
     0
  9
$DIMCLRT
 70
     0
  9
$DIMTFAC
 40
0.714286
  9
$DIMGAP
 40
1.399999999999999
  9
$DIMJUST
 70
     0
  9
$DIMSD1
 70
     0
  9
$DIMSD2
 70
     0
  9
$DIMTOLJ
 70
     0
  9
$DIMTZIN
 70
    12
  9
$DIMALTZ
 70
    12
  9
$DIMALTTZ
 70
    12
  9
$DIMUPT
 70
     0
  9
$DIMDEC
 70
     2
  9
$DIMTDEC
 70
     2
  9
$DIMALTU
 70
     2
  9
$DIMALTTD
 70
     2
  9
$DIMTXSTY
  7
Standard
  9
$DIMAUNIT
 70
     0
  9
$DIMADEC
 70
     2
  9
$DIMALTRND
 40
0.0
  9
$DIMAZIN
 70
     3
  9
$DIMDSEP
 70
    46
  9
$DIMATFIT
 70
     3
  9
$DIMFRAC
 70
     0
  9
$DIMLDRBLK
  1

  9
$DIMLUNIT
 70
     2
  9
$DIMLWD
 70
    -2
  9
$DIMLWE
 70
    -2
  9
$DIMTMOVE
 70
     0
  9
$DIMFXL
 40
1.0
  9
$DIMFXLON
 70
     0
  9
$DIMJOGANG
 40
0.7853979999999999
  9
$DIMTFILL
 70
     0
  9
$DIMTFILLCLR
 70
     0
  9
$DIMARCSYM
 70
     0
  9
$DIMLTYPE
  6

  9
$DIMLTEX1
  6

  9
$DIMLTEX2
  6

  9
$DIMTXTDIRECTION
 70
     0
  9
$LUNITS
 70
     2
  9
$LUPREC
 70
     4
  9
$SKETCHINC
 40
1.0
  9
$FILLETRAD
 40
0.0
  9
$AUNITS
 70
     0
  9
$AUPREC
 70
     0
  9
$MENU
  1
.
  9
$ELEVATION
 40
0.0
  9
$PELEVATION
 40
0.0
  9
$THICKNESS
 40
0.0
  9
$LIMCHECK
 70
     0
  9
$CHAMFERA
 40
0.0
  9
$CHAMFERB
 40
0.0
  9
$CHAMFERC
 40
0.0
  9
$CHAMFERD
 40
0.0
  9
$SKPOLY
 70
     0
  9
$TDCREATE
 40
2459912.607673611
  9
$TDUCREATE
 40
2459912.232673611
  9
$TDUPDATE
 40
2459912.615763889
  9
$TDUUPDATE
 40
2459912.240763889
  9
$TDINDWG
 40
0.0080324074
  9
$TDUSRTIMER
 40
0.0080324074
  9
$USRTIMER
 70
     1
  9
$ANGBASE
 50
0.0
  9
$ANGDIR
 70
     0
  9
$PDMODE
 70
     0
  9
$PDSIZE
 40
0.0
  9
$PLINEWID
 40
0.0
  9
$SPLFRAME
 70
     0
  9
$SPLINETYPE
 70
     6
  9
$SPLINESEGS
 70
     8
  9
$HANDSEED
  5
11A1
  9
$SURFTAB1
 70
     6
  9
$SURFTAB2
 70
     6
  9
$SURFTYPE
 70
     6
  9
$SURFU
 70
     6
  9
$SURFV
 70
     6
  9
$UCSBASE
  2

  9
$UCSNAME
  2

  9
$UCSORG
 10
0.0
 20
0.0
 30
0.0
  9
$UCSXDIR
 10
1.0
 20
0.0
 30
0.0
  9
$UCSYDIR
 10
0.0
 20
1.0
 30
0.0
  9
$UCSORTHOREF
  2

  9
$UCSORTHOVIEW
 70
     0
  9
$UCSORGTOP
 10
0.0
 20
0.0
 30
0.0
  9
$UCSORGBOTTOM
 10
0.0
 20
0.0
 30
0.0
  9
$UCSORGLEFT
 10
0.0
 20
0.0
 30
0.0
  9
$UCSORGRIGHT
 10
0.0
 20
0.0
 30
0.0
  9
$UCSORGFRONT
 10
0.0
 20
0.0
 30
0.0
  9
$UCSORGBACK
 10
0.0
 20
0.0
 30
0.0
  9
$PUCSBASE
  2

  9
$PUCSNAME
  2

  9
$PUCSORG
 10
0.0
 20
0.0
 30
0.0
  9
$PUCSXDIR
 10
1.0
 20
0.0
 30
0.0
  9
$PUCSYDIR
 10
0.0
 20
1.0
 30
0.0
  9
$PUCSORTHOREF
  2

  9
$PUCSORTHOVIEW
 70
     0
  9
$PUCSORGTOP
 10
0.0
 20
0.0
 30
0.0
  9
$PUCSORGBOTTOM
 10
0.0
 20
0.0
 30
0.0
  9
$PUCSORGLEFT
 10
0.0
 20
0.0
 30
0.0
  9
$PUCSORGRIGHT
 10
0.0
 20
0.0
 30
0.0
  9
$PUCSORGFRONT
 10
0.0
 20
0.0
 30
0.0
  9
$PUCSORGBACK
 10
0.0
 20
0.0
 30
0.0
  9
$USERI1
 70
     0
  9
$USERI2
 70
     0
  9
$USERI3
 70
     0
  9
$USERI4
 70
     0
  9
$USERI5
 70
     0
  9
$USERR1
 40
0.0
  9
$USERR2
 40
0.0
  9
$USERR3
 40
0.0
  9
$USERR4
 40
0.0
  9
$USERR5
 40
0.0
  9
$WORLDVIEW
 70
     1
  9
$SHADEDGE
 70
     3
  9
$SHADEDIF
 70
    70
  9
$TILEMODE
 70
     1
  9
$MAXACTVP
 70
    64
  9
$PINSBASE
 10
0.0
 20
0.0
 30
0.0
  9
$PLIMCHECK
 70
     0
  9
$PEXTMIN
 10
1.000000000000000E+20
 20
1.000000000000000E+20
 30
1.000000000000000E+20
  9
$PEXTMAX
 10
-1.000000000000000E+20
 20
-1.000000000000000E+20
 30
-1.000000000000000E+20
  9
$PLIMMIN
 10
0.0
 20
0.0
  9
$PLIMMAX
 10
12.0
 20
9.0
  9
$UNITMODE
 70
     0
  9
$VISRETAIN
 70
     1
  9
$PLINEGEN
 70
     0
  9
$PSLTSCALE
 70
     1
  9
$TREEDEPTH
 70
  3020
  9
$CMLSTYLE
  2
Standard
  9
$CMLJUST
 70
     0
  9
$CMLSCALE
 40
20.0
  9
$PROXYGRAPHICS
 70
     1
  9
$MEASUREMENT
 70
     1
  9
$CELWEIGHT
370
    -1
  9
$ENDCAPS
280
     0
  9
$JOINSTYLE
280
     0
  9
$LWDISPLAY
290
     0
  9
$INSUNITS
 70
     4
  9
$HYPERLINKBASE
  1

  9
$STYLESHEET
  1

  9
$XEDIT
290
     1
  9
$CEPSNTYPE
380
     0
  9
$PSTYLEMODE
290
     1
  9
$FINGERPRINTGUID
  2
{360C249D-C4D0-4E4B-AFAC-1C7AC1931F18}
  9
$VERSIONGUID
  2
{1CF4069E-C262-2B4B-AE6A-82B346152B49}
  9
$EXTNAMES
290
     1
  9
$PSVPSCALE
 40
0.0
  9
$OLESTARTUP
290
     0
  9
$SORTENTS
280
   127
  9
$INDEXCTL
280
     0
  9
$HIDETEXT
280
     1
  9
$XCLIPFRAME
280
     0
  9
$HALOGAP
280
     0
  9
$OBSCOLOR
 70
   257
  9
$OBSLTYPE
280
     0
  9
$INTERSECTIONDISPLAY
280
     0
  9
$INTERSECTIONCOLOR
 70
   257
  9
$DIMASSOC
280
     2
  9
$PROJECTNAME
  1

  9
$CAMERADISPLAY
290
     0
  9
$LENSLENGTH
 40
50.0
  9
$CAMERAHEIGHT
 40
0.0
  9
$STEPSPERSEC
 40
2.0
  9
$STEPSIZE
 40
6.0
  9
$3DDWFPREC
 40
2.0
  9
$PSOLWIDTH
 40
5.0
  9
$PSOLHEIGHT
 40
80.0
  9
$LOFTANG1
 40
1.570795999999999
  9
$LOFTANG2
 40
1.570795999999999
  9
$LOFTMAG1
 40
0.0
  9
$LOFTMAG2
 40
0.0
  9
$LOFTPARAM
 70
     7
  9
$LOFTNORMALS
280
     1
  9
$LATITUDE
 40
37.795
  9
$LONGITUDE
 40
-122.394
  9
$NORTHDIRECTION
 40
0.0
  9
$TIMEZONE
 70
 -8000
  9
$LIGHTGLYPHDISPLAY
280
     1
  9
$TILEMODELIGHTSYNCH
280
     1
  9
$CMATERIAL
347
11
  9
$SOLIDHIST
280
     0
  9
$SHOWHIST
280
     1
  9
$DWFFRAME
280
     2
  9
$DGNFRAME
280
     0
  9
$REALWORLDSCALE
290
     1
  9
$INTERFERECOLOR
 62
     1
  9
$INTERFEREOBJVS
345
33
  9
$INTERFEREVPVS
346
30
  9
$CSHADOW
280
     0
  9
$SHADOWPLANELOCATION
 40
0.0
  0
ENDSEC
  0
SECTION
  2
CLASSES
  0
CLASS
  1
ACDBDICTIONARYWDFLT
  2
AcDbDictionaryWithDefault
  3
ObjectDBX Classes
 90
        0
 91
        1
280
     0
281
     0
  0
CLASS
  1
MATERIAL
  2
AcDbMaterial
  3
ObjectDBX Classes
 90
     1153
 91
        3
280
     0
281
     0
  0
CLASS
  1
VISUALSTYLE
  2
AcDbVisualStyle
  3
ObjectDBX Classes
 90
     4095
 91
       24
280
     0
281
     0
  0
CLASS
  1
SCALE
  2
AcDbScale
  3
ObjectDBX Classes
 90
     1153
 91
       19
280
     0
281
     0
  0
CLASS
  1
TABLESTYLE
  2
AcDbTableStyle
  3
ObjectDBX Classes
 90
     4095
 91
        1
280
     0
281
     0
  0
CLASS
  1
MLEADERSTYLE
  2
AcDbMLeaderStyle
  3
ACDB_MLEADERSTYLE_CLASS
 90
     4095
 91
        1
280
     0
281
     0
  0
CLASS
  1
ACDBSECTIONVIEWSTYLE
  2
AcDbSectionViewStyle
  3
ObjectDBX Classes
 90
     1025
 91
        2
280
     0
281
     0
  0
CLASS
  1
ACDBDETAILVIEWSTYLE
  2
AcDbDetailViewStyle
  3
ObjectDBX Classes
 90
     1025
 91
        2
280
     0
281
     0
  0
CLASS
  1
ACMESCOPE
  2
AcMeScope
  3
AcMeServices
 90
     1024
 91
        0
280
     0
281
     0
  0
CLASS
  1
ACMECOMMANDHISTORY
  2
AcMeCommandHistory
  3
AcMeServices
 90
     1024
 91
        0
280
     0
281
     0
  0
CLASS
  1
ACIMSYSVARMAN
  2
AcImSysVarManager
  3
AcMeServices
 90
     1024
 91
        0
280
     0
281
     0
  0
CLASS
  1
ACIMINTSYSVAR
  2
AcImIntSysVar
  3
AcMeServices
 90
     1024
 91
        0
280
     0
281
     0
  0
CLASS
  1
ACMESTATEMGR
  2
AcMeStateMgr
  3
AcMeServices
 90
     1024
 91
        0
280
     0
281
     0
  0
CLASS
  1
ACGREFMASTER
  2
AcGrefMaster
  3
AcAttribServices
 90
     1024
 91
        0
280
     0
281
     0
  0
CLASS
  1
SORTENTSTABLE
  2
AcDbSortentsTable
  3
ObjectDBX Classes
 90
        0
 91
        2
280
     0
281
     0
  0
CLASS
  1
FIELD
  2
AcDbField
  3
ObjectDBX Classes
 90
     1152
 91
        0
280
     0
281
     0
  0
CLASS
  1
FIELDLIST
  2
AcDbFieldList
  3
ObjectDBX Classes
 90
     1152
 91
        1
280
     0
281
     0
  0
CLASS
  1
DICTIONARYVAR
  2
AcDbDictionaryVar
  3
ObjectDBX Classes
 90
        0
 91
        9
280
     0
281
     0
  0
CLASS
  1
CELLSTYLEMAP
  2
AcDbCellStyleMap
  3
ObjectDBX Classes
 90
     1152
 91
        2
280
     0
281
     0
  0
CLASS
  1
ACDBASSOCNETWORK
  2
AcDbAssocNetwork
  3
ObjectDBX Classes
 90
     1025
 91
        2
280
     0
281
     0
  0
CLASS
  1
ACDBASSOCACTION
  2
AcDbAssocAction
  3
ObjectDBX Classes
 90
     1025
 91
        1
280
     0
281
     0
  0
CLASS
  1
ACDBASSOCROTATEDDIMACTIONBODY
  2
AcDbAssocRotatedDimActionBody
  3
ObjectDBX Classes
 90
     1025
 91
        1
280
     0
281
     0
  0
CLASS
  1
ACDBASSOCOSNAPPOINTREFACTIONPARAM
  2
AcDbAssocOsnapPointRefActionParam
  3
ObjectDBX Classes
 90
     1025
 91
        2
280
     0
281
     0
  0
CLASS
  1
ACDBASSOCEDGEACTIONPARAM
  2
AcDbAssocEdgeActionParam
  3
ObjectDBX Classes
 90
     1025
 91
        4
280
     0
281
     0
  0
CLASS
  1
ACDBASSOCGEOMDEPENDENCY
  2
AcDbAssocGeomDependency
  3
ObjectDBX Classes
 90
     1025
 91
        4
280
     0
281
     0
  0
CLASS
  1
ACDBASSOCDEPENDENCY
  2
AcDbAssocDependency
  3
ObjectDBX Classes
 90
     1025
 91
        1
280
     0
281
     0
  0
CLASS
  1
DIMASSOC
  2
AcDbDimAssoc
  3
"AcDbDimAssoc|Product Desc:     AcDim ARX App For Dimension|Company:          Autodesk, Inc.|WEB Address:      www.autodesk.com"
 90
        0
 91
        4
280
     0
281
     0
  0
ENDSEC
  0
SECTION
  2
TABLES
  0
TABLE
  2
VPORT
  5
8
330
0
100
AcDbSymbolTable
 70
     1
1001
ACAD
1000
DbSaveVer
1071
      278
  0
VPORT
  5
57
330
8
100
AcDbSymbolTableRecord
100
AcDbViewportTableRecord
  2
*Active
 70
     0
 10
0.0
 20
0.0
 11
1.0
 21
1.0
 12
482.8253820247289
 22
250.8624130239925
 13
0.0
 23
0.0
 14
0.5
 24
0.5
 15
0.0
 25
0.0
 16
0.0
 26
0.0
 36
1.0
 17
0.0
 27
0.0
 37
0.0
 40
520.1819848842992
 41
1.950819672131147
 42
50.0
 43
0.0
 44
0.0
 50
0.0
 51
0.0
 71
     0
 72
 20000
 73
     1
 74
     0
 75
     0
 76
     0
 77
     0
 78
     0
281
     0
 65
     1
110
0.0
120
0.0
130
0.0
111
1.0
121
0.0
131
0.0
112
0.0
122
1.0
132
0.0
 79
     0
146
0.0
348
2F
 60
     3
 61
     5
292
     1
282
     1
141
0.0
142
0.0
 63
   250
421
  3355443
1001
ACAD_NAV_VCDISPLAY
1070
     3
  0
ENDTAB
  0
TABLE
  2
LTYPE
  5
5
330
0
100
AcDbSymbolTable
 70
    16
  0
LTYPE
  5
5B
330
5
100
AcDbSymbolTableRecord
100
AcDbLinetypeTableRecord
  2
ByBlock
 70
     0
  3

 72
    65
 73
     0
 40
0.0
  0
LTYPE
  5
5C
330
5
100
AcDbSymbolTableRecord
100
AcDbLinetypeTableRecord
  2
ByLayer
 70
     0
  3

 72
    65
 73
     0
 40
0.0
  0
LTYPE
  5
5D
330
5
100
AcDbSymbolTableRecord
100
AcDbLinetypeTableRecord
  2
Continuous
 70
     0
  3
Solid line
 72
    65
 73
     0
 40
0.0
  0
LTYPE
  5
81
330
5
100
AcDbSymbolTableRecord
100
AcDbLinetypeTableRecord
  2
HIDDEN
 70
     0
  3
Hidden __ __ __ __ __ __ __ __ __ __ __ __ __ _
 72
    65
 73
     2
 40
9.525
 49
6.349999999999999
 74
     0
 49
-3.174999999999999
 74
     0
  0
LTYPE
  5
82
330
5
100
AcDbSymbolTableRecord
100
AcDbLinetypeTableRecord
  2
PHANTOM2
 70
     0
  3
Phantom (.5x) ___ _ _ ___ _ _ ___ _ _ ___ _ _
 72
    65
 73
     6
 40
31.75
 49
15.875
 74
     0
 49
-3.174999999999999
 74
     0
 49
3.174999999999999
 74
     0
 49
-3.174999999999999
 74
     0
 49
3.174999999999999
 74
     0
 49
-3.174999999999999
 74
     0
  0
LTYPE
  5
83
330
5
100
AcDbSymbolTableRecord
100
AcDbLinetypeTableRecord
  2
CENTER
 70
     0
  3
Center ____ _ ____ _ ____ _ ____ _ ____ _ ____
 72
    65
 73
     4
 40
50.8
 49
31.75
 74
     0
 49
-6.349999999999999
 74
     0
 49
6.349999999999999
 74
     0
 49
-6.349999999999999
 74
     0
  0
LTYPE
  5
9E
330
5
100
AcDbSymbolTableRecord
100
AcDbLinetypeTableRecord
  2
AM_ISO02W050
 70
     0
  3
__ __ __ __ __ __ __ __ __ __ __ __ __ __ __
 72
    65
 73
     2
 40
7.5
 49
6.0
 74
     0
 49
-1.5
 74
     0
  0
LTYPE
  5
9F
330
5
100
AcDbSymbolTableRecord
100
AcDbLinetypeTableRecord
  2
AM_ISO08W050
 70
     0
  3
____ . ____ . ____ . ____ . ____ . ____ . ____
 72
    65
 73
     4
 40
18.0
 49
12.0
 74
     0
 49
-1.5
 74
     0
 49
3.0
 74
     0
 49
-1.5
 74
     0
  0
LTYPE
  5
A0
330
5
100
AcDbSymbolTableRecord
100
AcDbLinetypeTableRecord
  2
AM_ISO09W050
 70
     0
  3
_____ . . _____ . . _____ . . ____ .. ____
 72
    65
 73
     6
 40
22.5
 49
12.0
 74
     0
 49
-1.5
 74
     0
 49
3.0
 74
     0
 49
-1.5
 74
     0
 49
3.0
 74
     0
 49
-1.5
 74
     0
  0
LTYPE
  5
A1
330
5
100
AcDbSymbolTableRecord
100
AcDbLinetypeTableRecord
  2
Amconstr
 70
     0
  3
_______________________
 72
    65
 73
     2
 40
9999.0
 49
9999.0
 74
     0
 49
0.0
 74
     0
  0
LTYPE
  5
A2
330
5
100
AcDbSymbolTableRecord
100
AcDbLinetypeTableRecord
  2
AM_ISO08W050x2
 70
     0
  3
__ . __ . __ . __ . __ . __
 72
    65
 73
     4
 40
9.0
 49
6.0
 74
     0
 49
-0.75
 74
     0
 49
1.5
 74
     0
 49
-0.75
 74
     0
  0
LTYPE
  5
A3
330
5
100
AcDbSymbolTableRecord
100
AcDbLinetypeTableRecord
  2
AM_ISO02W050x2
 70
     0
  3
 _ _ _ _ _ _ _ _ _ _ _ _
 72
    65
 73
     2
 40
3.75
 49
3.0
 74
     0
 49
-0.75
 74
     0
  0
LTYPE
  5
A4
330
5
100
AcDbSymbolTableRecord
100
AcDbLinetypeTableRecord
  2
Amzigzag
 70
     0
  3
/\/-/\/-/\/-/\/-/\/-/\/
 72
    65
 73
     2
 40
11.0001
 49
0.0001
 74
     4
 75
   136
340
9B
 46
0.04
 50
0.0
 44
0.0
 45
0.0
 49
-11.0
 74
     0
  0
LTYPE
  5
A5
330
5
100
AcDbSymbolTableRecord
100
AcDbLinetypeTableRecord
  2
ACISOWELD
 70
     0
  3
_ _ _ _ _
 72
    65
 73
     2
 40
2.0
 49
2.0
 74
     0
 49
-1.0
 74
     0
  0
LTYPE
  5
A6
330
5
100
AcDbSymbolTableRecord
100
AcDbLinetypeTableRecord
  2
ACISOTGL
 70
     0
  3
_ _ _ _ _
 72
    65
 73
     2
 40
3.0
 49
2.0
 74
     0
 49
-1.0
 74
     0
  0
LTYPE
  5
A7
330
5
100
AcDbSymbolTableRecord
100
AcDbLinetypeTableRecord
  2
ACISOTGB
 70
     0
  3
__ . . __ . .
 72
    65
 73
     6
 40
9.0
 49
4.0
 74
     0
 49
-1.0
 74
     0
 49
1.0
 74
     0
 49
-1.0
 74
     0
 49
1.0
 74
     0
 49
-1.0
 74
     0
  0
ENDTAB
  0
TABLE
  2
LAYER
  5
2
330
0
100
AcDbSymbolTable
 70
    10
  0
LAYER
  5
54
330
2
100
AcDbSymbolTableRecord
100
AcDbLayerTableRecord
  2
0
 70
     0
 62
     7
  6
Continuous
370
    -3
390
F
347
21
348
0
1001
AcAecLayerStandard
1000

1000

  0
LAYER
  5
79
330
2
100
AcDbSymbolTableRecord
100
AcDbLayerTableRecord
  2
Defpoints
 70
     0
 62
     7
  6
Continuous
290
     0
370
    -3
390
F
347
21
348
0
1001
AcAecLayerStandard
1000

1000

  0
LAYER
  5
B5
330
2
100
AcDbSymbolTableRecord
100
AcDbLayerTableRecord
  2
Visible
 70
     0
 62
     7
  6
Continuous
370
    50
390
F
347
21
348
0
  0
LAYER
  5
43D
330
2
100
AcDbSymbolTableRecord
100
AcDbLayerTableRecord
  2
BORDER
 70
     0
 62
     7
  6
Continuous
370
    25
390
F
347
21
348
0
1001
AcAecLayerStandard
1000

1000

1001
AcCmTransparency
1071
        0
  0
LAYER
  5
483
330
2
100
AcDbSymbolTableRecord
100
AcDbLayerTableRecord
  2
TITLEBLOCK
 70
     0
 62
     7
  6
Continuous
370
    35
390
F
347
21
348
0
1001
AcAecLayerStandard
1000

1000

1001
AcCmTransparency
1071
        0
  0
LAYER
  5
4CF
330
2
100
AcDbSymbolTableRecord
100
AcDbLayerTableRecord
  2
Hatching
 70
     0
 62
     7
  6
Continuous
370
    25
390
F
347
21
348
0
  0
LAYER
  5
4D9
330
2
100
AcDbSymbolTableRecord
100
AcDbLayerTableRecord
  2
View Labels
 70
     0
 62
     7
  6
Continuous
370
    25
390
F
347
21
348
0
  0
LAYER
  5
4E4
330
2
100
AcDbSymbolTableRecord
100
AcDbLayerTableRecord
  2
FD_Dimensions
 70
     0
 62
     7
  6
Continuous
370
    25
390
F
347
21
348
0
  0
LAYER
  5
580
330
2
100
AcDbSymbolTableRecord
100
AcDbLayerTableRecord
  2
Section Lines
 70
     0
 62
     7
  6
Continuous
370
    25
390
F
347
21
348
0
  0
LAYER
  5
589
330
2
100
AcDbSymbolTableRecord
100
AcDbLayerTableRecord
  2
Detail Boundary
 70
     0
 62
     7
  6
Continuous
370
    25
390
F
347
21
348
0
  0
ENDTAB
  0
TABLE
  2
STYLE
  5
3
330
0
100
AcDbSymbolTable
 70
     5
  0
STYLE
  5
55
330
3
100
AcDbSymbolTableRecord
100
AcDbTextStyleTableRecord
  2
Standard
 70
     0
 40
0.0
 41
1.0
 50
0.0
 71
     0
 42
3.5
  3
arial.ttf
  4

1001
ACAD
1000
Arial
1071
       34
  0
STYLE
  5
5A
330
3
100
AcDbSymbolTableRecord
100
AcDbTextStyleTableRecord
  2
Annotative
 70
     0
 40
0.0
 41
1.0
 50
0.0
 71
     0
 42
0.2
  3
txt
  4

1001
AcadAnnotative
1000
AnnotativeData
1002
{
1070
     1
1070
     1
1002
}
  0
STYLE
  5
9A
330
3
100
AcDbSymbolTableRecord
100
AcDbTextStyleTableRecord
  2
FusionTitle
 70
     0
 40
0.0
 41
1.0
 50
0.0
 71
     0
 42
2.5
  3
arial.ttf
  4

1001
ACAD
1000
Arial
1071
       34
  0
STYLE
  5
9B
330
3
100
AcDbSymbolTableRecord
100
AcDbTextStyleTableRecord
  2

 70
     1
 40
0.0
 41
1.0
 50
0.0
 71
     0
 42
10.0
  3
genltshp.shx
  4

  0
STYLE
  5
9C
330
3
100
AcDbSymbolTableRecord
100
AcDbTextStyleTableRecord
  2
ACISOGDT
 70
     0
 40
0.0
 41
1.0
 50
0.0
 71
     0
 42
10.0
  3
amgdt.shx
  4

  0
ENDTAB
  0
TABLE
  2
VIEW
  5
6
330
0
100
AcDbSymbolTable
 70
     0
  0
ENDTAB
  0
TABLE
  2
UCS
  5
7
330
0
100
AcDbSymbolTable
 70
     0
  0
ENDTAB
  0
TABLE
  2
APPID
  5
9
330
0
100
AcDbSymbolTable
 70
    29
  0
APPID
  5
56
330
9
100
AcDbSymbolTableRecord
100
AcDbRegAppTableRecord
  2
ACAD
 70
     0
  0
APPID
  5
5E
330
9
100
AcDbSymbolTableRecord
100
AcDbRegAppTableRecord
  2
AcadAnnotative
 70
     0
  0
APPID
  5
78
330
9
100
AcDbSymbolTableRecord
100
AcDbRegAppTableRecord
  2
ACAD_PSEXT
 70
     0
  0
APPID
  5
7A
330
9
100
AcDbSymbolTableRecord
100
AcDbRegAppTableRecord
  2
MCAD_NO_VIS
 70
     0
  0
APPID
  5
7B
330
9
100
AcDbSymbolTableRecord
100
AcDbRegAppTableRecord
  2
ACAD_TEMP_GRAPHIC
 70
     0
  0
APPID
  5
84
330
9
100
AcDbSymbolTableRecord
100
AcDbRegAppTableRecord
  2
ACAD_DSTYLE_DIMJAG
 70
     0
  0
APPID
  5
85
330
9
100
AcDbSymbolTableRecord
100
AcDbRegAppTableRecord
  2
ACAD_DSTYLE_DIMTALN
 70
     0
  0
APPID
  5
86
330
9
100
AcDbSymbolTableRecord
100
AcDbRegAppTableRecord
  2
ACAD_NAV_VCDISPLAY
 70
     0
  0
APPID
  5
87
330
9
100
AcDbSymbolTableRecord
100
AcDbRegAppTableRecord
  2
AcAecLayerStandard
 70
     0
  0
APPID
  5
88
330
9
100
AcDbSymbolTableRecord
100
AcDbRegAppTableRecord
  2
AcCmTransparency
 70
     0
  0
APPID
  5
89
330
9
100
AcDbSymbolTableRecord
100
AcDbRegAppTableRecord
  2
AcDbDynamicBlockGUID
 70
     0
  0
APPID
  5
8A
330
9
100
AcDbSymbolTableRecord
100
AcDbRegAppTableRecord
  2
ACAD_DSTYLE_DIMBREAK
 70
     0
  0
APPID
  5
8B
330
9
100
AcDbSymbolTableRecord
100
AcDbRegAppTableRecord
  2
ACAD_TC
 70
     0
  0
APPID
  5
8C
330
9
100
AcDbSymbolTableRecord
100
AcDbRegAppTableRecord
  2
FUSIONTITLEBLOCK
 70
     0
  0
APPID
  5
8D
330
9
100
AcDbSymbolTableRecord
100
AcDbRegAppTableRecord
  2
FUSIONCURRENTTITLEBLOCK
 70
     0
  0
APPID
  5
8E
330
9
100
AcDbSymbolTableRecord
100
AcDbRegAppTableRecord
  2
AcSynergy
 70
     0
  0
APPID
  5
8F
330
9
100
AcDbSymbolTableRecord
100
AcDbRegAppTableRecord
  2
GENIUS_GENSCREG_15
 70
     0
  0
APPID
  5
90
330
9
100
AcDbSymbolTableRecord
100
AcDbRegAppTableRecord
  2
GENIUS_GENOBJ-N-SDF_13
 70
     0
  0
APPID
  5
91
330
9
100
AcDbSymbolTableRecord
100
AcDbRegAppTableRecord
  2
GENIUS_GENODEF_13
 70
     0
  0
APPID
  5
92
330
9
100
AcDbSymbolTableRecord
100
AcDbRegAppTableRecord
  2
ACAD_MODELDOC_XFORM
 70
     0
  0
APPID
  5
93
330
9
100
AcDbSymbolTableRecord
100
AcDbRegAppTableRecord
  2
SYNERGY_BODY_TBR_ID
 70
     0
  0
APPID
  5
94
330
9
100
AcDbSymbolTableRecord
100
AcDbRegAppTableRecord
  2
FusionCutBodyId
 70
     0
  0
APPID
  5
95
330
9
100
AcDbSymbolTableRecord
100
AcDbRegAppTableRecord
  2
ACAD_DIMASSOC_CALC_DIMLFAC
 70
     0
  0
APPID
  5
96
330
9
100
AcDbSymbolTableRecord
100
AcDbRegAppTableRecord
  2
ACAD_DIMASSOC_DIMLFAC
 70
     0
  0
APPID
  5
97
330
9
100
AcDbSymbolTableRecord
100
AcDbRegAppTableRecord
  2
ACAD_DIMASSOC_OVERRIDDEN_DIMLFAC
 70
     0
  0
APPID
  5
98
330
9
100
AcDbSymbolTableRecord
100
AcDbRegAppTableRecord
  2
ACAD_DSTYLE_DIMJAG_POSITION
 70
     0
  0
APPID
  5
99
330
9
100
AcDbSymbolTableRecord
100
AcDbRegAppTableRecord
  2
ACATTRIBSERVICES
 70
     0
  0
APPID
  5
BCA
330
9
100
AcDbSymbolTableRecord
100
AcDbRegAppTableRecord
  2
AcadAnnoMonitorAlertIconDisabled
 70
     0
  0
APPID
  5
BCB
330
9
100
AcDbSymbolTableRecord
100
AcDbRegAppTableRecord
  2
ACAD_EXEMPT_FROM_CAD_STANDARDS
 70
     0
  0
ENDTAB
  0
TABLE
  2
DIMSTYLE
  5
A
330
0
100
AcDbSymbolTable
 70
     5
100
AcDbDimStyleTable
 71
     1
340
AB
  0
DIMSTYLE
105
58
330
A
100
AcDbSymbolTableRecord
100
AcDbDimStyleTableRecord
  2
Standard
 70
     0
 41
3.5
 42
2.1
 43
10.5
 44
2.1
 78
    12
 79
     3
140
3.5
143
0.03937
146
0.714286
147
1.399999999999999
179
     2
271
     2
272
     2
284
    12
340
55
  0
DIMSTYLE
105
59
330
A
100
AcDbSymbolTableRecord
100
AcDbDimStyleTableRecord
  2
Annotative
 70
     0
 40
0.0
 41
3.5
 42
2.1
 43
10.5
 44
2.1
 73
     0
 74
     0
 77
     1
 78
    12
 79
     3
140
3.5
141
2.5
143
0.03937
146
0.714286
147
1.399999999999999
171
     3
172
     1
179
     2
271
     2
272
     2
274
     3
278
    44
283
     0
284
    12
340
55
1001
AcadAnnotative
1000
AnnotativeData
1002
{
1070
     1
1070
     1
1002
}
  0
DIMSTYLE
105
AA
330
A
100
AcDbSymbolTableRecord
100
AcDbDimStyleTableRecord
  2
ISO-25
 70
     0
  4
in
 41
3.5
 42
2.1
 43
10.5
 44
2.1
 47
0.1
 48
0.1
 73
     0
 74
     0
 77
     1
 78
    12
 79
     3
140
3.5
141
0.0
143
0.03937
146
0.714286
147
1.399999999999999
171
     4
172
     1
176
   256
177
   256
178
   256
179
     2
271
     2
272
     2
274
     4
283
     0
284
    12
285
     8
340
55
1001
ACAD_DSTYLE_DIMJAG
1070
   388
1040
1.5
1001
ACAD_DSTYLE_DIMTALN
1070
   392
1070
     1
1001
ACAD_DSTYLE_DIMBREAK
1070
   391
1040
3.5
  0
DIMSTYLE
105
AB
330
A
100
AcDbSymbolTableRecord
100
AcDbDimStyleTableRecord
  2
Dim-ISO-25
 70
     0
 41
3.5
 42
2.1
 43
10.5
 44
2.1
 47
0.1
 48
0.1
 73
     0
 74
     0
 77
     1
 78
    12
 79
     3
140
3.5
141
0.0
143
0.03937
146
0.714286
147
1.399999999999999
172
     1
179
     2
271
     2
272
     2
283
     0
284
    12
285
    12
286
    12
340
55
1001
ACAD_DSTYLE_DIMJAG
1070
   388
1040
1.5
1001
ACAD_DSTYLE_DIMTALN
1070
   392
1070
     1
1001
ACAD_DSTYLE_DIMBREAK
1070
   391
1040
3.5
  0
ENDTAB
  0
TABLE
  2
BLOCK_RECORD
  5
1
330
0
100
AcDbSymbolTable
 70
    32
  0
BLOCK_RECORD
  5
70
102
{ACAD_XDICTIONARY
360
AE
102
}
330
1
100
AcDbSymbolTableRecord
100
AcDbBlockTableRecord
  2
*Model_Space
340
73
 70
     0
280
     1
281
     0
  0
BLOCK_RECORD
  5
6C
330
1
100
AcDbSymbolTableRecord
100
AcDbBlockTableRecord
  2
*Paper_Space
340
6F
 70
     0
280
     1
281
     0
  0
BLOCK_RECORD
  5
74
330
1
100
AcDbSymbolTableRecord
100
AcDbBlockTableRecord
  2
*Paper_Space0
340
77
 70
     0
280
     1
281
     0
  0
BLOCK_RECORD
  5
43E
102
{ACAD_XDICTIONARY
360
43F
102
}
330
1
100
AcDbSymbolTableRecord
100
AcDbBlockTableRecord
  2
ISO_A3_SHEET
340
0
310
2800000020000000200000000100080000000000000400000000000000000000000000000000000000000000000080000080000000808000800000008000800080800000C0C0C000C0DCC000F0CAA6000020400000206000002080000020A0000020C0000020E00000400000004020000040400000406000004080000040A0
310
000040C0000040E00000600000006020000060400000606000006080000060A0000060C0000060E00000800000008020000080400000806000008080000080A0000080C0000080E00000A0000000A0200000A0400000A0600000A0800000A0A00000A0C00000A0E00000C0000000C0200000C0400000C0600000C0800000C0
310
A00000C0C00000C0E00000E0000000E0200000E0400000E0600000E0800000E0A00000E0C00000E0E00040000000400020004000400040006000400080004000A0004000C0004000E00040200000402020004020400040206000402080004020A0004020C0004020E000404000004040200040404000404060004040800040
310
40A0004040C0004040E00040600000406020004060400040606000406080004060A0004060C0004060E00040800000408020004080400040806000408080004080A0004080C0004080E00040A0000040A0200040A0400040A0600040A0800040A0A00040A0C00040A0E00040C0000040C0200040C0400040C0600040C08000
310
40C0A00040C0C00040C0E00040E0000040E0200040E0400040E0600040E0800040E0A00040E0C00040E0E00080000000800020008000400080006000800080008000A0008000C0008000E00080200000802020008020400080206000802080008020A0008020C0008020E00080400000804020008040400080406000804080
310
008040A0008040C0008040E00080600000806020008060400080606000806080008060A0008060C0008060E00080800000808020008080400080806000808080008080A0008080C0008080E00080A0000080A0200080A0400080A0600080A0800080A0A00080A0C00080A0E00080C0000080C0200080C0400080C0600080C0
310
800080C0A00080C0C00080C0E00080E0000080E0200080E0400080E0600080E0800080E0A00080E0C00080E0E000C0000000C0002000C0004000C0006000C0008000C000A000C000C000C000E000C0200000C0202000C0204000C0206000C0208000C020A000C020C000C020E000C0400000C0402000C0404000C0406000C0
310
408000C040A000C040C000C040E000C0600000C0602000C0604000C0606000C0608000C060A000C060C000C060E000C0800000C0802000C0804000C0806000C0808000C080A000C080C000C080E000C0A00000C0A02000C0A04000C0A06000C0A08000C0A0A000C0A0C000C0A0E000C0C00000C0C02000C0C04000C0C06000
310
C0C08000C0C0A000F0FBFF00A4A0A000808080000000FF0000FF000000FFFF00FF000000FF00FF00FFFF0000FFFFFF0049494949494949494949494949494949494949494949494949494949494949494949494949494949494949494949494949494949494949494949494949494949494949494949494949494949494949
310
494949494949494949494949494949494949494949494949494949494949494949494949494949494949494949494949494949494949494949494949494949494949494949494949494949494949494949494949494949494949494949494949494949494949494949494949494949494949FFFFFFFFFFFFFFFFFFFFFFFFFF
310
FFFFFFFFFFFFFFFFFFFFFFFFFFFFFFFFFF4949FF49FF494949494949494949494949FF494949494949494949494949FFFF49494949FF49494949494949494949494949494949494949494949494949FF49494949FFFF49494949494949494949494949494949494949494949494949FF4949494949FF494949494949494949
310
49494949494949494949494949494949FF4949494949FF49494949494949494949494949494949494949494949494949FF49494949FFFF49494949494949494949494949494949494949494949494949FF4949494949FF49494949494949494949494949494949494949494949494949FF4949494949FF4949494949494949
310
4949494949494949494949494949494949FF4949494949FF49494949494949494949494949494949494949494949494949FF49494949FFFF49494949494949494949494949494949494949494949494949FF4949494949FF49494949494949494949494949494949494949494949494949FF4949494949FF49494949494949
310
494949494949494949494949494949494949FF49494949FFFF49494949494949494949494949494949494949494949494949FF4949494949FF49494949494949494949494949494949494949494949494949FF4949494949FF49494949494949494949494949494949494949494949494949FF49494949FFFF494949494949
310
49494949494949494949494949494949494949FF4949494949FF49494949494949494949494949494949494949494949494949FF494949FF49FF494949494949494949494949FF494949494949494949494949FFFF4949FFFFFFFFFFFFFFFFFFFFFFFFFFFFFFFFFFFFFFFFFFFFFFFFFFFFFFFFFFFF49494949494949494949
310
49494949494949494949494949494949494949494949494949494949494949494949494949494949494949494949494949494949494949494949494949494949494949494949494949494949494949494949494949494949494949494949494949494949494949494949494949494949494949494949494949494949494949
310
4949494949494949494949494949494949494949494949494949494949494949494949494949494949494949494949494949494949494949
 70
     4
280
     1
281
     0
1001
AcDbDynamicBlockGUID
1000
{B4874B5E-8040-BF49-A9B6-B81412F7B0AC}
  0
BLOCK_RECORD
  5
484
102
{ACAD_XDICTIONARY
360
485
102
}
330
1
100
AcDbSymbolTableRecord
100
AcDbBlockTableRecord
  2
ISO_TITLEBLOCK
340
0
310
2800000020000000200000000100080000000000000400000000000000000000000000000000000000000000000080000080000000808000800000008000800080800000C0C0C000C0DCC000F0CAA6000020400000206000002080000020A0000020C0000020E00000400000004020000040400000406000004080000040A0
310
000040C0000040E00000600000006020000060400000606000006080000060A0000060C0000060E00000800000008020000080400000806000008080000080A0000080C0000080E00000A0000000A0200000A0400000A0600000A0800000A0A00000A0C00000A0E00000C0000000C0200000C0400000C0600000C0800000C0
310
A00000C0C00000C0E00000E0000000E0200000E0400000E0600000E0800000E0A00000E0C00000E0E00040000000400020004000400040006000400080004000A0004000C0004000E00040200000402020004020400040206000402080004020A0004020C0004020E000404000004040200040404000404060004040800040
310
40A0004040C0004040E00040600000406020004060400040606000406080004060A0004060C0004060E00040800000408020004080400040806000408080004080A0004080C0004080E00040A0000040A0200040A0400040A0600040A0800040A0A00040A0C00040A0E00040C0000040C0200040C0400040C0600040C08000
310
40C0A00040C0C00040C0E00040E0000040E0200040E0400040E0600040E0800040E0A00040E0C00040E0E00080000000800020008000400080006000800080008000A0008000C0008000E00080200000802020008020400080206000802080008020A0008020C0008020E00080400000804020008040400080406000804080
310
008040A0008040C0008040E00080600000806020008060400080606000806080008060A0008060C0008060E00080800000808020008080400080806000808080008080A0008080C0008080E00080A0000080A0200080A0400080A0600080A0800080A0A00080A0C00080A0E00080C0000080C0200080C0400080C0600080C0
310
800080C0A00080C0C00080C0E00080E0000080E0200080E0400080E0600080E0800080E0A00080E0C00080E0E000C0000000C0002000C0004000C0006000C0008000C000A000C000C000C000E000C0200000C0202000C0204000C0206000C0208000C020A000C020C000C020E000C0400000C0402000C0404000C0406000C0
310
408000C040A000C040C000C040E000C0600000C0602000C0604000C0606000C0608000C060A000C060C000C060E000C0800000C0802000C0804000C0806000C0808000C080A000C080C000C080E000C0A00000C0A02000C0A04000C0A06000C0A08000C0A0A000C0A0C000C0A0E000C0C00000C0C02000C0C04000C0C06000
310
C0C08000C0C0A000F0FBFF00A4A0A000808080000000FF0000FF000000FFFF00FF000000FF00FF00FFFF0000FFFFFF0049494949494949494949494949494949494949494949494949494949494949494949494949494949494949494949494949494949494949494949494949494949494949494949494949494949494949
310
49494949494949494949494949494949494949494949494949494949494949494949494949494949494949494949494949494949494949494949494949494949494949494949494949494949494949494949494949494949494949494949494949494949494949494949494949494949494949494949494949494949494949
310
49494949494949494949494949494949494949494949494949494949494949494949494949494949494949494949494949494949494949494949494949494949494949494949494949494949494949494949494949494949494949494949494949494949494949494949494949494949494949494949494949494949494949
310
49494949494949494949494949494949494949494949494949494949494949494949494949494949494949494949494949494949FFFFFFFFFFFFFFFFFFFFFFFFFFFFFFFFFFFFFFFFFFFFFFFFFFFFFF4949494949FF4949494949494949FFFFFFFFFF49494949FFFFFFFFFFFFFFFFFFFF49494949FF4949494949494949FFFF
310
FFFFFF494949FFFFFFFFFFFFFFFFFFFF4949494949FF4949494949494949FFFFFFFFFF494949FFFFFFFFFFFFFFFFFFFF4949494949FF4949494949494949FFFFFFFFFFFFFFFFFFFFFFFFFFFFFFFFFFFF4949494949FFFFFFFFFFFFFFFFFFFFFFFFFFFFFFFFFFFFFFFFFFFFFFFFFFFFFF4949494949FFFFFF49FFFFFFFFFFFF
310
FFFFFFFFFFFFFFFFFFFFFFFFFFFFFFFFFFFFFFFF4949FFFFFFFFFFFFFFFFFFFFFFFFFFFFFFFFFFFFFFFFFFFFFFFFFFFFFF494949494949494949494949494949494949494949494949494949494949494949494949494949494949494949494949494949494949494949494949494949494949494949494949494949494949
310
49494949494949494949494949494949494949494949494949494949494949494949494949494949494949494949494949494949494949494949494949494949494949494949494949494949494949494949494949494949494949494949494949494949494949494949494949494949494949494949494949494949494949
310
49494949494949494949494949494949494949494949494949494949494949494949494949494949494949494949494949494949494949494949494949494949494949494949494949494949494949494949494949494949494949494949494949494949494949494949494949494949494949494949494949494949494949
310
4949494949494949494949494949494949494949494949494949494949494949494949494949494949494949494949494949494949494949
 70
     4
280
     1
281
     0
1001
AcDbDynamicBlockGUID
1000
{BCD52D05-323A-B54A-8A21-1B84008CF9CB}
1001
FUSIONTITLEBLOCK
1000
TitleBlock
  0
BLOCK_RECORD
  5
4E5
330
1
100
AcDbSymbolTableRecord
100
AcDbBlockTableRecord
  2
*D3
340
0
 70
     0
280
     1
281
     0
  0
BLOCK_RECORD
  5
4F2
330
1
100
AcDbSymbolTableRecord
100
AcDbBlockTableRecord
  2
*D4
340
0
 70
     0
280
     1
281
     0
  0
BLOCK_RECORD
  5
501
330
1
100
AcDbSymbolTableRecord
100
AcDbBlockTableRecord
  2
*D5
340
0
 70
     0
280
     1
281
     0
  0
BLOCK_RECORD
  5
510
330
1
100
AcDbSymbolTableRecord
100
AcDbBlockTableRecord
  2
*D6
340
0
 70
     0
280
     1
281
     0
  0
BLOCK_RECORD
  5
51D
330
1
100
AcDbSymbolTableRecord
100
AcDbBlockTableRecord
  2
*D7
340
0
 70
     0
280
     1
281
     0
  0
BLOCK_RECORD
  5
52C
330
1
100
AcDbSymbolTableRecord
100
AcDbBlockTableRecord
  2
*D8
340
0
 70
     0
280
     1
281
     0
  0
BLOCK_RECORD
  5
539
330
1
100
AcDbSymbolTableRecord
100
AcDbBlockTableRecord
  2
*D9
340
0
 70
     0
280
     1
281
     0
  0
BLOCK_RECORD
  5
546
330
1
100
AcDbSymbolTableRecord
100
AcDbBlockTableRecord
  2
*D10
340
0
 70
     0
280
     1
281
     0
  0
BLOCK_RECORD
  5
553
330
1
100
AcDbSymbolTableRecord
100
AcDbBlockTableRecord
  2
*D11
340
0
 70
     0
280
     1
281
     0
  0
BLOCK_RECORD
  5
560
330
1
100
AcDbSymbolTableRecord
100
AcDbBlockTableRecord
  2
*D12
340
0
 70
     0
280
     1
281
     0
  0
BLOCK_RECORD
  5
56D
330
1
100
AcDbSymbolTableRecord
100
AcDbBlockTableRecord
  2
*D13
340
0
 70
     0
280
     1
281
     0
  0
BLOCK_RECORD
  5
58F
330
1
100
AcDbSymbolTableRecord
100
AcDbBlockTableRecord
  2
*D14
340
0
 70
     0
280
     1
281
     0
  0
BLOCK_RECORD
  5
59B
330
1
100
AcDbSymbolTableRecord
100
AcDbBlockTableRecord
  2
*D15
340
0
 70
     0
280
     1
281
     0
  0
BLOCK_RECORD
  5
5A9
330
1
100
AcDbSymbolTableRecord
100
AcDbBlockTableRecord
  2
*D16
340
0
 70
     0
280
     1
281
     0
  0
BLOCK_RECORD
  5
5B7
330
1
100
AcDbSymbolTableRecord
100
AcDbBlockTableRecord
  2
*D17
340
0
 70
     0
280
     1
281
     0
  0
BLOCK_RECORD
  5
5C3
330
1
100
AcDbSymbolTableRecord
100
AcDbBlockTableRecord
  2
*D18
340
0
 70
     0
280
     1
281
     0
  0
BLOCK_RECORD
  5
5D1
330
1
100
AcDbSymbolTableRecord
100
AcDbBlockTableRecord
  2
*D19
340
0
 70
     0
280
     1
281
     0
  0
BLOCK_RECORD
  5
5DD
330
1
100
AcDbSymbolTableRecord
100
AcDbBlockTableRecord
  2
*D20
340
0
 70
     0
280
     1
281
     0
  0
BLOCK_RECORD
  5
5E9
330
1
100
AcDbSymbolTableRecord
100
AcDbBlockTableRecord
  2
*D21
340
0
 70
     0
280
     1
281
     0
  0
BLOCK_RECORD
  5
5F5
330
1
100
AcDbSymbolTableRecord
100
AcDbBlockTableRecord
  2
*D22
340
0
 70
     0
280
     1
281
     0
  0
BLOCK_RECORD
  5
601
330
1
100
AcDbSymbolTableRecord
100
AcDbBlockTableRecord
  2
*D23
340
0
 70
     0
280
     1
281
     0
  0
BLOCK_RECORD
  5
60D
330
1
100
AcDbSymbolTableRecord
100
AcDbBlockTableRecord
  2
*D24
340
0
 70
     0
280
     1
281
     0
  0
BLOCK_RECORD
  5
C5F
330
1
100
AcDbSymbolTableRecord
100
AcDbBlockTableRecord
  2
_Oblique
340
0
102
{BLKREFS
331
114E
331
114F
331
1159
331
115A
331
1164
331
1165
331
116D
331
116E
331
1176
331
1177
102
}
 70
     0
280
     1
281
     0
  0
BLOCK_RECORD
  5
10B0
330
1
100
AcDbSymbolTableRecord
100
AcDbBlockTableRecord
  2
*D27
340
0
 70
     0
280
     1
281
     0
  0
BLOCK_RECORD
  5
10FC
330
1
100
AcDbSymbolTableRecord
100
AcDbBlockTableRecord
  2
*D28
340
0
 70
     0
280
     1
281
     0
  0
BLOCK_RECORD
  5
1118
330
1
100
AcDbSymbolTableRecord
100
AcDbBlockTableRecord
  2
*D29
340
0
 70
     0
280
     1
281
     0
  0
BLOCK_RECORD
  5
1134
330
1
100
AcDbSymbolTableRecord
100
AcDbBlockTableRecord
  2
*D30
340
0
 70
     0
280
     1
281
     0
  0
BLOCK_RECORD
  5
1187
330
1
100
AcDbSymbolTableRecord
100
AcDbBlockTableRecord
  2
*D31
340
0
 70
     0
280
     1
281
     0
  0
ENDTAB
  0
ENDSEC
  0
SECTION
  2
BLOCKS
  0
BLOCK
  5
71
330
70
100
AcDbEntity
  8
0
100
AcDbBlockBegin
  2
*Model_Space
 70
     0
 10
0.0
 20
0.0
 30
0.0
  3
*Model_Space
  1

  0
ENDBLK
  5
72
330
70
100
AcDbEntity
  8
0
100
AcDbBlockEnd
  0
BLOCK
  5
6D
330
6C
100
AcDbEntity
 67
     1
  8
0
100
AcDbBlockBegin
  2
*Paper_Space
 70
     0
 10
0.0
 20
0.0
 30
0.0
  3
*Paper_Space
  1

  0
ENDBLK
  5
6E
330
6C
100
AcDbEntity
 67
     1
  8
0
100
AcDbBlockEnd
  0
BLOCK
  5
75
330
74
100
AcDbEntity
 67
     1
  8
0
100
AcDbBlockBegin
  2
*Paper_Space0
 70
     0
 10
0.0
 20
0.0
 30
0.0
  3
*Paper_Space0
  1

  0
ENDBLK
  5
76
330
74
100
AcDbEntity
 67
     1
  8
0
100
AcDbBlockEnd
  0
BLOCK
  5
440
330
43E
100
AcDbEntity
  8
0
100
AcDbBlockBegin
  2
ISO_A3_SHEET
 70
     0
 10
0.0
 20
0.0
 30
0.0
  3
ISO_A3_SHEET
  1

  0
LINE
  5
441
330
43E
100
AcDbEntity
  8
Defpoints
100
AcDbLine
 10
0.0
 20
0.0
 30
0.0
 11
15.0
 21
0.0
 31
0.0
  0
LINE
  5
442
330
43E
100
AcDbEntity
  8
Defpoints
100
AcDbLine
 10
405.0
 20
0.0
 30
0.0
 11
420.0
 21
0.0
 31
0.0
  0
LINE
  5
443
330
43E
100
AcDbEntity
  8
BORDER
100
AcDbLine
 10
20.0
 20
10.0
 30
0.0
 11
410.0
 21
10.0
 31
0.0
  0
LINE
  5
444
330
43E
100
AcDbEntity
  8
Defpoints
100
AcDbLine
 10
420.0
 20
0.0
 30
0.0
 11
420.0
 21
15.0
 31
0.0
  0
LINE
  5
445
330
43E
100
AcDbEntity
  8
Defpoints
100
AcDbLine
 10
420.0
 20
282.0
 30
0.0
 11
420.0
 21
297.0
 31
0.0
  0
LINE
  5
446
330
43E
100
AcDbEntity
  8
Defpoints
100
AcDbLine
 10
420.0
 20
297.0
 30
0.0
 11
405.0
 21
297.0
 31
0.0
  0
LINE
  5
447
330
43E
100
AcDbEntity
  8
Defpoints
100
AcDbLine
 10
15.0
 20
297.0
 30
0.0
 11
0.0
 21
297.0
 31
0.0
  0
LINE
  5
448
330
43E
100
AcDbEntity
  8
BORDER
100
AcDbLine
 10
410.0
 20
287.0
 30
0.0
 11
20.0
 21
287.0
 31
0.0
  0
LINE
  5
449
330
43E
100
AcDbEntity
  8
Defpoints
100
AcDbLine
 10
0.0
 20
297.0
 30
0.0
 11
0.0
 21
282.0
 31
0.0
  0
LINE
  5
44A
330
43E
100
AcDbEntity
  8
Defpoints
100
AcDbLine
 10
0.0
 20
15.0
 30
0.0
 11
0.0
 21
0.0
 31
0.0
  0
LINE
  5
44B
330
43E
100
AcDbEntity
  8
BORDER
100
AcDbLine
 10
20.0
 20
287.0
 30
0.0
 11
20.0
 21
10.0
 31
0.0
  0
LINE
  5
44C
330
43E
100
AcDbEntity
  8
BORDER
100
AcDbLine
 10
410.0
 20
287.0
 30
0.0
 11
410.0
 21
10.0
 31
0.0
  0
LINE
  5
44D
330
43E
100
AcDbEntity
  8
BORDER
100
AcDbLine
 10
215.0
 20
5.0
 30
0.0
 11
215.0
 21
15.0
 31
0.0
  0
LINE
  5
44E
330
43E
100
AcDbEntity
  8
BORDER
100
AcDbLine
 10
215.0
 20
292.0
 30
0.0
 11
215.0
 21
282.0
 31
0.0
  0
LINE
  5
44F
330
43E
100
AcDbEntity
  8
BORDER
100
AcDbLine
 10
265.0
 20
292.0
 30
0.0
 11
265.0
 21
287.0
 31
0.0
  0
LINE
  5
450
330
43E
100
AcDbEntity
  8
BORDER
100
AcDbLine
 10
315.0
 20
292.0
 30
0.0
 11
315.0
 21
287.0
 31
0.0
  0
LINE
  5
451
330
43E
100
AcDbEntity
  8
BORDER
100
AcDbLine
 10
365.0
 20
292.0
 30
0.0
 11
365.0
 21
287.0
 31
0.0
  0
LINE
  5
452
330
43E
100
AcDbEntity
  8
BORDER
100
AcDbLine
 10
165.0
 20
292.0
 30
0.0
 11
165.0
 21
287.0
 31
0.0
  0
LINE
  5
453
330
43E
100
AcDbEntity
  8
BORDER
100
AcDbLine
 10
115.0
 20
292.0
 30
0.0
 11
115.0
 21
287.0
 31
0.0
  0
LINE
  5
454
330
43E
100
AcDbEntity
  8
BORDER
100
AcDbLine
 10
65.0
 20
292.0
 30
0.0
 11
65.0
 21
287.0
 31
0.0
  0
LINE
  5
455
330
43E
100
AcDbEntity
  8
BORDER
100
AcDbLine
 10
15.0
 20
148.5
 30
0.0
 11
25.0
 21
148.5
 31
0.0
  0
LINE
  5
456
330
43E
100
AcDbEntity
  8
BORDER
100
AcDbLine
 10
15.0
 20
100.66667
 30
0.0
 11
20.0
 21
100.66667
 31
0.0
  0
LINE
  5
457
330
43E
100
AcDbEntity
  8
BORDER
100
AcDbLine
 10
15.0
 20
52.83333999999999
 30
0.0
 11
20.0
 21
52.83333999999999
 31
0.0
  0
LINE
  5
458
330
43E
100
AcDbEntity
  8
BORDER
100
AcDbLine
 10
15.0
 20
196.33333
 30
0.0
 11
20.0
 21
196.33333
 31
0.0
  0
LINE
  5
459
330
43E
100
AcDbEntity
  8
BORDER
100
AcDbLine
 10
15.0
 20
244.16666
 30
0.0
 11
20.0
 21
244.16666
 31
0.0
  0
LINE
  5
45A
330
43E
100
AcDbEntity
  8
BORDER
100
AcDbLine
 10
415.0
 20
148.5
 30
0.0
 11
405.0
 21
148.5
 31
0.0
  0
LINE
  5
45B
330
43E
100
AcDbEntity
  8
BORDER
100
AcDbLine
 10
265.0
 20
5.0
 30
0.0
 11
265.0
 21
10.0
 31
0.0
  0
LINE
  5
45C
330
43E
100
AcDbEntity
  8
BORDER
100
AcDbLine
 10
315.0
 20
5.0
 30
0.0
 11
315.0
 21
10.0
 31
0.0
  0
LINE
  5
45D
330
43E
100
AcDbEntity
  8
BORDER
100
AcDbLine
 10
365.0
 20
5.0
 30
0.0
 11
365.0
 21
10.0
 31
0.0
  0
LINE
  5
45E
330
43E
100
AcDbEntity
  8
BORDER
100
AcDbLine
 10
165.0
 20
5.0
 30
0.0
 11
165.0
 21
10.0
 31
0.0
  0
LINE
  5
45F
330
43E
100
AcDbEntity
  8
BORDER
100
AcDbLine
 10
115.0
 20
5.0
 30
0.0
 11
115.0
 21
10.0
 31
0.0
  0
LINE
  5
460
330
43E
100
AcDbEntity
  8
BORDER
100
AcDbLine
 10
65.0
 20
5.0
 30
0.0
 11
65.0
 21
10.0
 31
0.0
  0
LINE
  5
461
330
43E
100
AcDbEntity
  8
BORDER
100
AcDbLine
 10
415.0
 20
100.66667
 30
0.0
 11
410.0
 21
100.66667
 31
0.0
  0
LINE
  5
462
330
43E
100
AcDbEntity
  8
BORDER
100
AcDbLine
 10
415.0
 20
52.83333999999999
 30
0.0
 11
410.0
 21
52.83333999999999
 31
0.0
  0
LINE
  5
463
330
43E
100
AcDbEntity
  8
BORDER
100
AcDbLine
 10
415.0
 20
196.33333
 30
0.0
 11
410.0
 21
196.33333
 31
0.0
  0
LINE
  5
464
330
43E
100
AcDbEntity
  8
BORDER
100
AcDbLine
 10
415.0
 20
244.16666
 30
0.0
 11
410.0
 21
244.16666
 31
0.0
  0
TEXT
  5
465
330
43E
100
AcDbEntity
  8
BORDER
100
AcDbText
 10
39.02881991814462
 20
288.2448840381992
 30
0.0
 40
2.5
  1
1
  7
FusionTitle
 72
     4
 11
40.0
 21
289.5
 31
0.0
100
AcDbText
  0
TEXT
  5
466
330
43E
100
AcDbEntity
  8
BORDER
100
AcDbText
 10
16.33526603001364
 20
266.83333
 30
0.0
 40
2.5
  1
A
  7
FusionTitle
 72
     4
 11
17.5
 21
268.08333
 31
0.0
100
AcDbText
  0
TEXT
  5
467
330
43E
100
AcDbEntity
  8
BORDER
100
AcDbText
 10
89.0288199181446
 20
288.2448840381992
 30
0.0
 40
2.5
  1
2
  7
FusionTitle
 72
     4
 11
90.0
 21
289.5
 31
0.0
100
AcDbText
  0
TEXT
  5
468
330
43E
100
AcDbEntity
  8
BORDER
100
AcDbText
 10
139.0288199181446
 20
288.2670532060028
 30
0.0
 40
2.5
  1
3
  7
FusionTitle
 72
     4
 11
140.0
 21
289.5
 31
0.0
100
AcDbText
  0
TEXT
  5
469
330
43E
100
AcDbEntity
  8
BORDER
100
AcDbText
 10
189.0288199181446
 20
288.25
 30
0.0
 40
2.5
  1
4
  7
FusionTitle
 72
     4
 11
190.0
 21
289.5
 31
0.0
100
AcDbText
  0
TEXT
  5
46A
330
43E
100
AcDbEntity
  8
BORDER
100
AcDbText
 10
239.0288199181446
 20
288.2883697135061
 30
0.0
 40
2.5
  1
5
  7
FusionTitle
 72
     4
 11
240.0
 21
289.5
 31
0.0
100
AcDbText
  0
TEXT
  5
46B
330
43E
100
AcDbEntity
  8
BORDER
100
AcDbText
 10
289.0288199181446
 20
288.2662005457026
 30
0.0
 40
2.5
  1
6
  7
FusionTitle
 72
     4
 11
290.0
 21
289.5
 31
0.0
100
AcDbText
  0
TEXT
  5
46C
330
43E
100
AcDbEntity
  8
BORDER
100
AcDbText
 10
339.0288199181446
 20
288.2662005457026
 30
0.0
 40
2.5
  1
7
  7
FusionTitle
 72
     4
 11
340.0
 21
289.5
 31
0.0
100
AcDbText
  0
TEXT
  5
46D
330
43E
100
AcDbEntity
  8
BORDER
100
AcDbText
 10
389.0288199181446
 20
288.2662005457026
 30
0.0
 40
2.5
  1
8
  7
FusionTitle
 72
     4
 11
390.0
 21
289.5
 31
0.0
100
AcDbText
  0
TEXT
  5
46E
330
43E
100
AcDbEntity
  8
BORDER
100
AcDbText
 10
39.02881991814462
 20
6.244884038199181
 30
0.0
 40
2.5
  1
1
  7
FusionTitle
 72
     4
 11
40.0
 21
7.5
 31
0.0
100
AcDbText
  0
TEXT
  5
46F
330
43E
100
AcDbEntity
  8
BORDER
100
AcDbText
 10
89.0288199181446
 20
6.244884038199181
 30
0.0
 40
2.5
  1
2
  7
FusionTitle
 72
     4
 11
90.0
 21
7.5
 31
0.0
100
AcDbText
  0
TEXT
  5
470
330
43E
100
AcDbEntity
  8
BORDER
100
AcDbText
 10
139.0288199181446
 20
6.267053206002728
 30
0.0
 40
2.5
  1
3
  7
FusionTitle
 72
     4
 11
140.0
 21
7.5
 31
0.0
100
AcDbText
  0
TEXT
  5
471
330
43E
100
AcDbEntity
  8
BORDER
100
AcDbText
 10
189.0288199181446
 20
6.25
 30
0.0
 40
2.5
  1
4
  7
FusionTitle
 72
     4
 11
190.0
 21
7.5
 31
0.0
100
AcDbText
  0
TEXT
  5
472
330
43E
100
AcDbEntity
  8
BORDER
100
AcDbText
 10
239.0288199181446
 20
6.288369713506138
 30
0.0
 40
2.5
  1
5
  7
FusionTitle
 72
     4
 11
240.0
 21
7.5
 31
0.0
100
AcDbText
  0
TEXT
  5
473
330
43E
100
AcDbEntity
  8
BORDER
100
AcDbText
 10
289.0288199181446
 20
6.266200545702591
 30
0.0
 40
2.5
  1
6
  7
FusionTitle
 72
     4
 11
290.0
 21
7.5
 31
0.0
100
AcDbText
  0
TEXT
  5
474
330
43E
100
AcDbEntity
  8
BORDER
100
AcDbText
 10
339.0288199181446
 20
6.266200545702591
 30
0.0
 40
2.5
  1
7
  7
FusionTitle
 72
     4
 11
340.0
 21
7.5
 31
0.0
100
AcDbText
  0
TEXT
  5
475
330
43E
100
AcDbEntity
  8
BORDER
100
AcDbText
 10
389.0288199181446
 20
6.266200545702591
 30
0.0
 40
2.5
  1
8
  7
FusionTitle
 72
     4
 11
390.0
 21
7.5
 31
0.0
100
AcDbText
  0
TEXT
  5
476
330
43E
100
AcDbEntity
  8
BORDER
100
AcDbText
 10
16.33526603001364
 20
219.0
 30
0.0
 40
2.5
  1
B
  7
FusionTitle
 72
     4
 11
17.5
 21
220.25
 31
0.0
100
AcDbText
  0
TEXT
  5
477
330
43E
100
AcDbEntity
  8
BORDER
100
AcDbText
 10
16.23891541609823
 20
171.16667
 30
0.0
 40
2.5
  1
C
  7
FusionTitle
 72
     4
 11
17.5
 21
172.41667
 31
0.0
100
AcDbText
  0
TEXT
  5
478
330
43E
100
AcDbEntity
  8
BORDER
100
AcDbText
 10
16.23891541609823
 20
123.33334
 30
0.0
 40
2.5
  1
D
  7
FusionTitle
 72
     4
 11
17.5
 21
124.58334
 31
0.0
100
AcDbText
  0
TEXT
  5
479
330
43E
100
AcDbEntity
  8
BORDER
100
AcDbText
 10
16.33526603001364
 20
75.50001
 30
0.0
 40
2.5
  1
E
  7
FusionTitle
 72
     4
 11
17.5
 21
76.75001
 31
0.0
100
AcDbText
  0
TEXT
  5
47A
330
43E
100
AcDbEntity
  8
BORDER
100
AcDbText
 10
16.43332196452933
 20
27.66668
 30
0.0
 40
2.5
  1
F
  7
FusionTitle
 72
     4
 11
17.5
 21
28.91668
 31
0.0
100
AcDbText
  0
TEXT
  5
47B
330
43E
100
AcDbEntity
  8
BORDER
100
AcDbText
 10
411.3352660300136
 20
266.83333
 30
0.0
 40
2.5
  1
A
  7
FusionTitle
 72
     4
 11
412.5
 21
268.08333
 31
0.0
100
AcDbText
  0
TEXT
  5
47C
330
43E
100
AcDbEntity
  8
BORDER
100
AcDbText
 10
411.3352660300136
 20
219.0
 30
0.0
 40
2.5
  1
B
  7
FusionTitle
 72
     4
 11
412.5
 21
220.25
 31
0.0
100
AcDbText
  0
TEXT
  5
47D
330
43E
100
AcDbEntity
  8
BORDER
100
AcDbText
 10
411.2389154160982
 20
171.16667
 30
0.0
 40
2.5
  1
C
  7
FusionTitle
 72
     4
 11
412.5
 21
172.41667
 31
0.0
100
AcDbText
  0
TEXT
  5
47E
330
43E
100
AcDbEntity
  8
BORDER
100
AcDbText
 10
411.2389154160982
 20
123.33334
 30
0.0
 40
2.5
  1
D
  7
FusionTitle
 72
     4
 11
412.5
 21
124.58334
 31
0.0
100
AcDbText
  0
TEXT
  5
47F
330
43E
100
AcDbEntity
  8
BORDER
100
AcDbText
 10
411.3352660300136
 20
75.50001
 30
0.0
 40
2.5
  1
E
  7
FusionTitle
 72
     4
 11
412.5
 21
76.75001
 31
0.0
100
AcDbText
  0
TEXT
  5
480
330
43E
100
AcDbEntity
  8
BORDER
100
AcDbText
 10
411.4333219645293
 20
27.66668
 30
0.0
 40
2.5
  1
F
  7
FusionTitle
 72
     4
 11
412.5
 21
28.91668
 31
0.0
100
AcDbText
  0
ENDBLK
  5
481
330
43E
100
AcDbEntity
  8
0
100
AcDbBlockEnd
  0
BLOCK
  5
487
330
484
100
AcDbEntity
  8
0
100
AcDbBlockBegin
  2
ISO_TITLEBLOCK
 70
     2
 10
0.0
 20
0.0
 30
0.0
  3
ISO_TITLEBLOCK
  1

  0
LINE
  5
488
330
484
100
AcDbEntity
  8
TITLEBLOCK
100
AcDbLine
 10
-180.0
 20
0.0
 30
0.0
 11
0.0
 21
0.0
 31
0.0
  0
LINE
  5
489
330
484
100
AcDbEntity
  8
TITLEBLOCK
100
AcDbLine
 10
-61.0
 20
10.0
 30
0.0
 11
0.0
 21
10.0
 31
0.0
  0
LINE
  5
48A
330
484
100
AcDbEntity
  8
TITLEBLOCK
100
AcDbLine
 10
-122.0
 20
27.0
 30
0.0
 11
0.0
 21
27.0
 31
0.0
  0
LINE
  5
48B
330
484
100
AcDbEntity
  8
TITLEBLOCK
100
AcDbLine
 10
-180.0
 20
37.0
 30
0.0
 11
0.0
 21
37.0
 31
0.0
  0
LINE
  5
48C
330
484
100
AcDbEntity
  8
TITLEBLOCK
100
AcDbLine
 10
0.0
 20
0.0
 30
0.0
 11
0.0
 21
47.0
 31
0.0
  0
LINE
  5
48D
330
484
100
AcDbEntity
  8
TITLEBLOCK
100
AcDbLine
 10
-15.0
 20
0.0
 30
0.0
 11
-15.0
 21
10.0
 31
0.0
  0
LINE
  5
48E
330
484
100
AcDbEntity
  8
TITLEBLOCK
100
AcDbLine
 10
-51.0
 20
0.0
 30
0.0
 11
-51.0
 21
10.0
 31
0.0
  0
LINE
  5
48F
330
484
100
AcDbEntity
  8
TITLEBLOCK
100
AcDbLine
 10
-61.0
 20
0.0
 30
0.0
 11
-61.0
 21
47.0
 31
0.0
  0
LINE
  5
490
330
484
100
AcDbEntity
  8
TITLEBLOCK
100
AcDbLine
 10
-122.0
 20
0.0
 30
0.0
 11
-122.0
 21
47.0
 31
0.0
  0
LINE
  5
491
330
484
100
AcDbEntity
  8
TITLEBLOCK
100
AcDbLine
 10
-156.0
 20
37.0
 30
0.0
 11
-156.0
 21
47.0
 31
0.0
  0
LINE
  5
492
330
484
100
AcDbEntity
  8
TITLEBLOCK
100
AcDbLine
 10
0.0
 20
47.0
 30
0.0
 11
-180.0
 21
47.0
 31
0.0
  0
LINE
  5
493
330
484
100
AcDbEntity
  8
TITLEBLOCK
100
AcDbLine
 10
-180.0
 20
47.0
 30
0.0
 11
-180.0
 21
0.0
 31
0.0
  0
TEXT
  5
494
330
484
100
AcDbEntity
  8
TITLEBLOCK
100
AcDbText
 10
-179.0
 20
44.2
 30
0.0
 40
1.8
  1
Dept.
  7
FusionTitle
 11
-179.0
 21
46.0
 31
0.0
100
AcDbText
 73
     3
  0
TEXT
  5
495
330
484
100
AcDbEntity
  8
TITLEBLOCK
100
AcDbText
 10
-155.0
 20
44.2
 30
0.0
 40
1.8
  1
Technical reference
  7
FusionTitle
 11
-155.0
 21
46.0
 31
0.0
100
AcDbText
 73
     3
  0
TEXT
  5
496
330
484
100
AcDbEntity
  8
TITLEBLOCK
100
AcDbText
 10
-121.0
 20
44.2
 30
0.0
 40
1.8
  1
Created by
  7
FusionTitle
 11
-121.0
 21
46.0
 31
0.0
100
AcDbText
 73
     3
  0
TEXT
  5
497
330
484
100
AcDbEntity
  8
TITLEBLOCK
100
AcDbText
 10
-60.0
 20
44.2
 30
0.0
 40
1.8
  1
Approved by
  7
FusionTitle
 11
-60.0
 21
46.0
 31
0.0
100
AcDbText
 73
     3
  0
TEXT
  5
498
330
484
100
AcDbEntity
  8
TITLEBLOCK
100
AcDbText
 10
-121.0
 20
34.2
 30
0.0
 40
1.8
  1
Document type
  7
FusionTitle
 11
-121.0
 21
36.0
 31
0.0
100
AcDbText
 73
     3
  0
TEXT
  5
499
330
484
100
AcDbEntity
  8
TITLEBLOCK
100
AcDbText
 10
-60.0
 20
34.2
 30
0.0
 40
1.8
  1
Document status
  7
FusionTitle
 11
-60.0
 21
36.0
 31
0.0
100
AcDbText
 73
     3
  0
TEXT
  5
49A
330
484
100
AcDbEntity
  8
TITLEBLOCK
100
AcDbText
 10
-121.0
 20
24.2
 30
0.0
 40
1.8
  1
Title
  7
FusionTitle
 11
-121.0
 21
26.0
 31
0.0
100
AcDbText
 73
     3
  0
TEXT
  5
49B
330
484
100
AcDbEntity
  8
TITLEBLOCK
100
AcDbText
 10
-60.0
 20
24.2
 30
0.0
 40
1.8
  1
DWG No.
  7
FusionTitle
 11
-60.0
 21
26.0
 31
0.0
100
AcDbText
 73
     3
  0
TEXT
  5
49C
330
484
100
AcDbEntity
  8
TITLEBLOCK
100
AcDbText
 10
-60.0
 20
7.2
 30
0.0
 40
1.8
  1
Rev.
  7
FusionTitle
 11
-60.0
 21
9.0
 31
0.0
100
AcDbText
 73
     3
  0
TEXT
  5
49D
330
484
100
AcDbEntity
  8
TITLEBLOCK
100
AcDbText
 10
-50.0
 20
7.2
 30
0.0
 40
1.8
  1
Date of issue
  7
FusionTitle
 11
-50.0
 21
9.0
 31
0.0
100
AcDbText
 73
     3
  0
TEXT
  5
49E
330
484
100
AcDbEntity
  8
TITLEBLOCK
100
AcDbText
 10
-14.0
 20
7.2
 30
0.0
 40
1.8
  1
Sheet
  7
FusionTitle
 11
-14.0
 21
9.0
 31
0.0
100
AcDbText
 73
     3
  0
ATTDEF
  5
49F
102
{ACAD_XDICTIONARY
360
4A0
102
}
330
484
100
AcDbEntity
  8
TITLEBLOCK
100
AcDbText
 10
-50.0
 20
1.5
 30
0.0
 40
3.5
  1

  7
FusionTitle
 11
-50.0
 21
5.0
 31
0.0
100
AcDbAttributeDefinition
280
     0
  3
Date of issue
  2
DATE_OF_ISSUE
 70
     0
 74
     3
280
     1
  0
ATTDEF
  5
4A1
102
{ACAD_XDICTIONARY
360
4A2
102
}
330
484
100
AcDbEntity
  8
TITLEBLOCK
100
AcDbText
 10
-56.0
 20
1.349999999999999
 30
0.0
 40
3.5
  1

  7
FusionTitle
 72
     1
 11
-56.0
 21
4.849999999999999
 31
0.0
100
AcDbAttributeDefinition
280
     0
  3
Revision
  2
REV
 70
     0
 74
     3
280
     1
  0
ATTDEF
  5
4A3
102
{ACAD_XDICTIONARY
360
4A4
102
}
330
484
100
AcDbEntity
  8
TITLEBLOCK
100
AcDbText
 10
-121.0
 20
1.5
 30
0.0
 40
5.0
  1

  7
FusionTitle
 11
-121.0
 21
6.5
 31
0.0
100
AcDbAttributeDefinition
280
     0
  3
3rd Title
  2
TITLE_3
 70
     0
 74
     3
280
     1
  0
ATTDEF
  5
4A5
102
{ACAD_XDICTIONARY
360
4A6
102
}
330
484
100
AcDbEntity
  8
TITLEBLOCK
100
AcDbText
 10
-60.0
 20
28.5
 30
0.0
 40
3.5
  1

  7
FusionTitle
 11
-60.0
 21
32.0
 31
0.0
100
AcDbAttributeDefinition
280
     0
  3
Document status
  2
DOCUMENT_STATUS
 70
     0
 74
     3
280
     1
  0
ATTDEF
  5
4A7
102
{ACAD_XDICTIONARY
360
4A8
102
}
330
484
100
AcDbEntity
  8
TITLEBLOCK
100
AcDbText
 10
-121.0
 20
28.5
 30
0.0
 40
3.5
  1

  7
FusionTitle
 11
-121.0
 21
32.0
 31
0.0
100
AcDbAttributeDefinition
280
     0
  3
Document type
  2
DOCUMENT_TYPE
 70
     0
 74
     3
280
     1
  0
ATTDEF
  5
4A9
102
{ACAD_XDICTIONARY
360
4AA
102
}
330
484
100
AcDbEntity
  8
TITLEBLOCK
100
AcDbText
 10
-0.992838
 20
38.5
 30
0.0
 40
3.5
  1

  7
FusionTitle
 72
     2
 11
-0.9928379999999998
 21
42.0
 31
0.0
100
AcDbAttributeDefinition
280
     0
  3
Approved date
  2
APPROVED_DATE
 70
     0
 74
     3
280
     1
  0
ATTDEF
  5
4AB
102
{ACAD_XDICTIONARY
360
4AC
102
}
330
484
100
AcDbEntity
  8
TITLEBLOCK
100
AcDbText
 10
-62.0
 20
38.5
 30
0.0
 40
3.5
  1

  7
FusionTitle
 72
     2
 11
-62.0
 21
42.0
 31
0.0
100
AcDbAttributeDefinition
280
     0
  3
Created date
  2
CREATED_DATE
 70
     0
 74
     3
280
     1
  0
ATTDEF
  5
4AD
102
{ACAD_XDICTIONARY
360
4AE
102
}
330
484
100
AcDbEntity
  8
TITLEBLOCK
100
AcDbText
 10
-7.5
 20
1.349999999999999
 30
0.0
 40
3.5
  1

  7
FusionTitle
 72
     1
 11
-7.5
 21
4.849999999999999
 31
0.0
100
AcDbAttributeDefinition
280
     0
  3
Sheet
  2
SHEET
 70
     0
 74
     3
280
     1
  0
ATTDEF
  5
4AF
102
{ACAD_XDICTIONARY
360
4B0
102
}
330
484
100
AcDbEntity
  8
TITLEBLOCK
100
AcDbText
 10
-121.0
 20
9.0
 30
0.0
 40
5.0
  1

  7
FusionTitle
 11
-121.0
 21
14.0
 31
0.0
100
AcDbAttributeDefinition
280
     0
  3
2nd Title
  2
TITLE_2
 70
     0
 74
     3
280
     1
  0
ATTDEF
  5
4B1
102
{ACAD_XDICTIONARY
360
4B2
102
}
330
484
100
AcDbEntity
  8
TITLEBLOCK
100
AcDbText
 10
-30.5
 20
14.751432
 30
0.0
 40
5.0
  1

  7
FusionTitle
 72
     1
 11
-30.5
 21
19.751432
 31
0.0
100
AcDbAttributeDefinition
280
     0
  3
Drawing number
  2
DRAWING_NUMBER
 70
     0
 74
     3
280
     1
  0
ATTDEF
  5
4B3
102
{ACAD_XDICTIONARY
360
4B4
102
}
330
484
100
AcDbEntity
  8
TITLEBLOCK
100
AcDbText
 10
-121.0
 20
16.5
 30
0.0
 40
5.0
  1

  7
FusionTitle
 11
-121.0
 21
21.5
 31
0.0
100
AcDbAttributeDefinition
280
     0
  3
1st Title
  2
TITLE_1
 70
     0
 74
     3
280
     1
  0
ATTDEF
  5
4B5
102
{ACAD_XDICTIONARY
360
4B6
102
}
330
484
100
AcDbEntity
  8
TITLEBLOCK
100
AcDbText
 10
-60.0
 20
38.5
 30
0.0
 40
3.5
  1

  7
FusionTitle
 11
-60.0
 21
42.0
 31
0.0
100
AcDbAttributeDefinition
280
     0
  3
Approved by
  2
APPROVED_BY
 70
     0
 74
     3
280
     1
  0
ATTDEF
  5
4B7
102
{ACAD_XDICTIONARY
360
4B8
102
}
330
484
100
AcDbEntity
  8
TITLEBLOCK
100
AcDbText
 10
-121.0
 20
38.5
 30
0.0
 40
3.5
  1

  7
FusionTitle
 11
-121.0
 21
42.0
 31
0.0
100
AcDbAttributeDefinition
280
     0
  3
Created by
  2
CREATED_BY
 70
     0
 74
     3
280
     1
  0
ATTDEF
  5
4B9
102
{ACAD_XDICTIONARY
360
4BA
102
}
330
484
100
AcDbEntity
  8
TITLEBLOCK
100
AcDbText
 10
-155.0
 20
38.5
 30
0.0
 40
3.5
  1

  7
FusionTitle
 11
-155.0
 21
42.0
 31
0.0
100
AcDbAttributeDefinition
280
     0
  3
Technical reference
  2
TECHNICAL_REFERENCE
 70
     0
 74
     3
280
     1
  0
ATTDEF
  5
4BB
102
{ACAD_XDICTIONARY
360
4BC
102
}
330
484
100
AcDbEntity
  8
TITLEBLOCK
100
AcDbText
 10
-179.0
 20
38.5
 30
0.0
 40
3.5
  1

  7
FusionTitle
 11
-179.0
 21
42.0
 31
0.0
100
AcDbAttributeDefinition
280
     0
  3
Department
  2
DEPT
 70
     0
 74
     3
280
     1
  0
ENDBLK
  5
4BD
330
484
100
AcDbEntity
  8
0
100
AcDbBlockEnd
  0
BLOCK
  5
4E6
330
4E5
100
AcDbEntity
  8
0
100
AcDbBlockBegin
  2
*D3
 70
     1
 10
0.0
 20
0.0
 30
0.0
  3
*D3
  1

  0
LINE
  5
4E7
330
4E5
100
AcDbEntity
  8
FD_Dimensions
 62
     0
440
 16777216
370
    -2
100
AcDbLine
 10
325.768659
 20
207.654202
 30
0.0
 11
325.768659
 21
218.154202
 31
0.0
  0
LINE
  5
4E8
330
4E5
100
AcDbEntity
  8
FD_Dimensions
 62
     0
440
 16777216
370
    -2
100
AcDbLine
 10
45.768659
 20
207.654202
 30
0.0
 11
45.768659
 21
218.154202
 31
0.0
  0
LINE
  5
4E9
330
4E5
100
AcDbEntity
  8
FD_Dimensions
 62
     0
440
 16777216
370
    -2
100
AcDbLine
 10
322.2686589999999
 20
216.054202
 30
0.0
 11
49.268659
 21
216.054202
 31
0.0
  0
SOLID
  5
4EA
330
4E5
100
AcDbEntity
  8
FD_Dimensions
 62
     0
440
 16777216
100
AcDbTrace
 10
322.2686589999999
 20
216.637535
 30
0.0
 11
322.2686589999999
 21
215.470868
 31
0.0
 12
325.768659
 22
216.054202
 32
0.0
 13
325.768659
 23
216.054202
 33
0.0
  0
SOLID
  5
4EB
330
4E5
100
AcDbEntity
  8
FD_Dimensions
 62
     0
440
 16777216
100
AcDbTrace
 10
49.268659
 20
216.637535
 30
0.0
 11
49.268659
 21
215.470868
 31
0.0
 12
45.768659
 22
216.054202
 32
0.0
 13
45.768659
 23
216.054202
 33
0.0
  0
MTEXT
  5
4EC
330
4E5
100
AcDbEntity
  8
FD_Dimensions
 62
     0
440
 16777216
100
AcDbMText
 10
185.768659
 20
219.241207
 30
0.0
 40
3.5
 41
0.0
 46
0.0
 71
     5
 72
     1
  1
700
 73
     1
 44
1.0
  0
POINT
  5
4ED
330
4E5
100
AcDbEntity
  8
Defpoints
 62
     0
440
 16777216
100
AcDbPoint
 10
325.768659
 20
205.554202
 30
0.0
  0
POINT
  5
4EE
330
4E5
100
AcDbEntity
  8
Defpoints
 62
     0
440
 16777216
100
AcDbPoint
 10
45.768659
 20
205.554202
 30
0.0
  0
POINT
  5
4EF
330
4E5
100
AcDbEntity
  8
Defpoints
 62
     0
440
 16777216
100
AcDbPoint
 10
45.768659
 20
216.054202
 30
0.0
  0
ENDBLK
  5
4F0
330
4E5
100
AcDbEntity
  8
0
100
AcDbBlockEnd
  0
BLOCK
  5
4F3
330
4F2
100
AcDbEntity
  8
0
100
AcDbBlockBegin
  2
*D4
 70
     1
 10
0.0
 20
0.0
 30
0.0
  3
*D4
  1

  0
LINE
  5
4F4
330
4F2
100
AcDbEntity
  8
FD_Dimensions
 62
     0
440
 16777216
370
    -2
100
AcDbLine
 10
38.111737
 20
207.654202
 30
0.0
 11
38.111737
 21
218.31212
 31
0.0
  0
LINE
  5
4F5
330
4F2
100
AcDbEntity
  8
FD_Dimensions
 62
     0
440
 16777216
370
    -2
100
AcDbLine
 10
38.591737
 20
207.654202
 30
0.0
 11
38.591737
 21
218.31212
 31
0.0
  0
LINE
  5
4F6
330
4F2
100
AcDbEntity
  8
FD_Dimensions
 62
     0
440
 16777216
370
    -2
100
AcDbLine
 10
42.091737
 20
216.21212
 30
0.0
 11
45.591737
 21
216.21212
 31
0.0
  0
LINE
  5
4F7
330
4F2
100
AcDbEntity
  8
FD_Dimensions
 62
     0
440
 16777216
370
    -2
100
AcDbLine
 10
34.611737
 20
216.21212
 30
0.0
 11
22.304916
 21
216.21212
 31
0.0
  0
LINE
  5
4F8
330
4F2
100
AcDbEntity
  8
FD_Dimensions
 62
     0
440
 16777216
370
    -2
100
AcDbLine
 10
38.591737
 20
216.21212
 30
0.0
 11
38.111737
 21
216.21212
 31
0.0
  0
SOLID
  5
4F9
330
4F2
100
AcDbEntity
  8
FD_Dimensions
 62
     0
440
 16777216
100
AcDbTrace
 10
42.091737
 20
216.795453
 30
0.0
 11
42.091737
 21
215.628786
 31
0.0
 12
38.591737
 22
216.21212
 32
0.0
 13
38.591737
 23
216.21212
 33
0.0
  0
SOLID
  5
4FA
330
4F2
100
AcDbEntity
  8
FD_Dimensions
 62
     0
440
 16777216
100
AcDbTrace
 10
34.611737
 20
216.795453
 30
0.0
 11
34.611737
 21
215.628786
 31
0.0
 12
38.111737
 22
216.21212
 32
0.0
 13
38.111737
 23
216.21212
 33
0.0
  0
MTEXT
  5
4FB
330
4F2
100
AcDbEntity
  8
FD_Dimensions
 62
     0
440
 16777216
100
AcDbMText
 10
26.708327
 20
219.369282
 30
0.0
 40
3.5
 41
0.0
 46
0.0
 71
     5
 72
     1
  1
1.2
 73
     1
 44
1.0
  0
POINT
  5
4FC
330
4F2
100
AcDbEntity
  8
Defpoints
 62
     0
440
 16777216
100
AcDbPoint
 10
38.111737
 20
205.554202
 30
0.0
  0
POINT
  5
4FD
330
4F2
100
AcDbEntity
  8
Defpoints
 62
     0
440
 16777216
100
AcDbPoint
 10
38.591737
 20
205.554202
 30
0.0
  0
POINT
  5
4FE
330
4F2
100
AcDbEntity
  8
Defpoints
 62
     0
440
 16777216
100
AcDbPoint
 10
38.591737
 20
216.21212
 30
0.0
  0
ENDBLK
  5
4FF
330
4F2
100
AcDbEntity
  8
0
100
AcDbBlockEnd
  0
BLOCK
  5
502
330
501
100
AcDbEntity
  8
0
100
AcDbBlockBegin
  2
*D5
 70
     1
 10
0.0
 20
0.0
 30
0.0
  3
*D5
  1

  0
LINE
  5
503
330
501
100
AcDbEntity
  8
FD_Dimensions
 62
     0
440
 16777216
370
    -2
100
AcDbLine
 10
332.968659
 20
207.654202
 30
0.0
 11
332.968659
 21
218.154202
 31
0.0
  0
LINE
  5
504
330
501
100
AcDbEntity
  8
FD_Dimensions
 62
     0
440
 16777216
370
    -2
100
AcDbLine
 10
333.448659
 20
207.654202
 30
0.0
 11
333.448659
 21
218.154202
 31
0.0
  0
LINE
  5
505
330
501
100
AcDbEntity
  8
FD_Dimensions
 62
     0
440
 16777216
370
    -2
100
AcDbLine
 10
329.468659
 20
216.054202
 30
0.0
 11
325.968659
 21
216.054202
 31
0.0
  0
LINE
  5
506
330
501
100
AcDbEntity
  8
FD_Dimensions
 62
     0
440
 16777216
370
    -2
100
AcDbLine
 10
336.948659
 20
216.054202
 30
0.0
 11
349.25548
 21
216.054202
 31
0.0
  0
LINE
  5
507
330
501
100
AcDbEntity
  8
FD_Dimensions
 62
     0
440
 16777216
370
    -2
100
AcDbLine
 10
332.968659
 20
216.054202
 30
0.0
 11
333.448659
 21
216.054202
 31
0.0
  0
SOLID
  5
508
330
501
100
AcDbEntity
  8
FD_Dimensions
 62
     0
440
 16777216
100
AcDbTrace
 10
329.468659
 20
216.637535
 30
0.0
 11
329.468659
 21
215.470868
 31
0.0
 12
332.968659
 22
216.054202
 32
0.0
 13
332.968659
 23
216.054202
 33
0.0
  0
SOLID
  5
509
330
501
100
AcDbEntity
  8
FD_Dimensions
 62
     0
440
 16777216
100
AcDbTrace
 10
336.948659
 20
216.637535
 30
0.0
 11
336.948659
 21
215.470868
 31
0.0
 12
333.448659
 22
216.054202
 32
0.0
 13
333.448659
 23
216.054202
 33
0.0
  0
MTEXT
  5
50A
330
501
100
AcDbEntity
  8
FD_Dimensions
 62
     0
440
 16777216
100
AcDbMText
 10
344.852069
 20
219.211364
 30
0.0
 40
3.5
 41
0.0
 46
0.0
 71
     5
 72
     1
  1
1.2
 73
     1
 44
1.0
  0
POINT
  5
50B
330
501
100
AcDbEntity
  8
Defpoints
 62
     0
440
 16777216
100
AcDbPoint
 10
332.968659
 20
205.554202
 30
0.0
  0
POINT
  5
50C
330
501
100
AcDbEntity
  8
Defpoints
 62
     0
440
 16777216
100
AcDbPoint
 10
333.448659
 20
205.554202
 30
0.0
  0
POINT
  5
50D
330
501
100
AcDbEntity
  8
Defpoints
 62
     0
440
 16777216
100
AcDbPoint
 10
333.448659
 20
216.054202
 30
0.0
  0
ENDBLK
  5
50E
330
501
100
AcDbEntity
  8
0
100
AcDbBlockEnd
  0
BLOCK
  5
511
330
510
100
AcDbEntity
  8
0
100
AcDbBlockBegin
  2
*D6
 70
     1
 10
0.0
 20
0.0
 30
0.0
  3
*D6
  1

  0
LINE
  5
512
330
510
100
AcDbEntity
  8
FD_Dimensions
 62
     0
440
 16777216
370
    -2
100
AcDbLine
 10
356.53013
 20
266.019493
 30
0.0
 11
356.53013
 21
273.602643
 31
0.0
  0
LINE
  5
513
330
510
100
AcDbEntity
  8
FD_Dimensions
 62
     0
440
 16777216
370
    -2
100
AcDbLine
 10
382.93013
 20
266.019493
 30
0.0
 11
382.93013
 21
273.602643
 31
0.0
  0
LINE
  5
514
330
510
100
AcDbEntity
  8
FD_Dimensions
 62
     0
440
 16777216
370
    -2
100
AcDbLine
 10
360.03013
 20
271.502643
 30
0.0
 11
379.43013
 21
271.502643
 31
0.0
  0
SOLID
  5
515
330
510
100
AcDbEntity
  8
FD_Dimensions
 62
     0
440
 16777216
100
AcDbTrace
 10
360.03013
 20
272.085976
 30
0.0
 11
360.03013
 21
270.919309
 31
0.0
 12
356.53013
 22
271.502643
 32
0.0
 13
356.53013
 23
271.502643
 33
0.0
  0
SOLID
  5
516
330
510
100
AcDbEntity
  8
FD_Dimensions
 62
     0
440
 16777216
100
AcDbTrace
 10
379.43013
 20
272.085976
 30
0.0
 11
379.43013
 21
270.919309
 31
0.0
 12
382.93013
 22
271.502643
 32
0.0
 13
382.93013
 23
271.502643
 33
0.0
  0
MTEXT
  5
517
330
510
100
AcDbEntity
  8
FD_Dimensions
 62
     0
440
 16777216
100
AcDbMText
 10
369.73013
 20
274.689648
 30
0.0
 40
3.5
 41
0.0
 46
0.0
 71
     5
 72
     1
  1
17.6
 73
     1
 44
1.0
  0
POINT
  5
518
330
510
100
AcDbEntity
  8
Defpoints
 62
     0
440
 16777216
100
AcDbPoint
 10
356.53013
 20
263.919493
 30
0.0
  0
POINT
  5
519
330
510
100
AcDbEntity
  8
Defpoints
 62
     0
440
 16777216
100
AcDbPoint
 10
382.93013
 20
263.919493
 30
0.0
  0
POINT
  5
51A
330
510
100
AcDbEntity
  8
Defpoints
 62
     0
440
 16777216
100
AcDbPoint
 10
382.93013
 20
271.502643
 30
0.0
  0
ENDBLK
  5
51B
330
510
100
AcDbEntity
  8
0
100
AcDbBlockEnd
  0
BLOCK
  5
51E
330
51D
100
AcDbEntity
  8
0
100
AcDbBlockBegin
  2
*D7
 70
     1
 10
0.0
 20
0.0
 30
0.0
  3
*D7
  1

  0
LINE
  5
51F
330
51D
100
AcDbEntity
  8
FD_Dimensions
 62
     0
440
 16777216
370
    -2
100
AcDbLine
 10
382.859363
 20
258.669493
 30
0.0
 11
395.500878
 21
258.669493
 31
0.0
  0
LINE
  5
520
330
51D
100
AcDbEntity
  8
FD_Dimensions
 62
     0
440
 16777216
370
    -2
100
AcDbLine
 10
384.28013
 20
264.669493
 30
0.0
 11
395.500878
 21
264.669493
 31
0.0
  0
LINE
  5
521
330
51D
100
AcDbEntity
  8
FD_Dimensions
 62
     0
440
 16777216
370
    -2
100
AcDbLine
 10
393.400878
 20
255.169493
 30
0.0
 11
393.400878
 21
251.669493
 31
0.0
  0
LINE
  5
522
330
51D
100
AcDbEntity
  8
FD_Dimensions
 62
     0
440
 16777216
370
    -2
100
AcDbLine
 10
393.400878
 20
268.169493
 30
0.0
 11
393.400878
 21
271.669493
 31
0.0
  0
LINE
  5
523
330
51D
100
AcDbEntity
  8
FD_Dimensions
 62
     0
440
 16777216
370
    -2
100
AcDbLine
 10
393.400878
 20
258.669493
 30
0.0
 11
393.400878
 21
264.669493
 31
0.0
  0
SOLID
  5
524
330
51D
100
AcDbEntity
  8
FD_Dimensions
 62
     0
440
 16777216
100
AcDbTrace
 10
392.817545
 20
255.169493
 30
0.0
 11
393.984211
 21
255.169493
 31
0.0
 12
393.400878
 22
258.669493
 32
0.0
 13
393.400878
 23
258.669493
 33
0.0
  0
SOLID
  5
525
330
51D
100
AcDbEntity
  8
FD_Dimensions
 62
     0
440
 16777216
100
AcDbTrace
 10
392.817545
 20
268.169493
 30
0.0
 11
393.984211
 21
268.169493
 31
0.0
 12
393.400878
 22
264.669493
 32
0.0
 13
393.400878
 23
264.669493
 33
0.0
  0
MTEXT
  5
526
330
51D
100
AcDbEntity
  8
FD_Dimensions
 62
     0
440
 16777216
100
AcDbMText
 10
390.250878
 20
261.669493
 30
0.0
 40
3.5
 41
0.0
 46
0.0
 71
     5
 72
     1
  1
4
 11
0.0
 21
1.0
 31
0.0
 73
     1
 44
1.0
  0
POINT
  5
527
330
51D
100
AcDbEntity
  8
Defpoints
 62
     0
440
 16777216
100
AcDbPoint
 10
380.759363
 20
258.669493
 30
0.0
  0
POINT
  5
528
330
51D
100
AcDbEntity
  8
Defpoints
 62
     0
440
 16777216
100
AcDbPoint
 10
382.18013
 20
264.669493
 30
0.0
  0
POINT
  5
529
330
51D
100
AcDbEntity
  8
Defpoints
 62
     0
440
 16777216
100
AcDbPoint
 10
393.400878
 20
264.669493
 30
0.0
  0
ENDBLK
  5
52A
330
51D
100
AcDbEntity
  8
0
100
AcDbBlockEnd
  0
BLOCK
  5
52D
330
52C
100
AcDbEntity
  8
0
100
AcDbBlockBegin
  2
*D8
 70
     1
 10
0.0
 20
0.0
 30
0.0
  3
*D8
  1

  0
LINE
  5
52E
330
52C
100
AcDbEntity
  8
FD_Dimensions
 62
     0
440
 16777216
370
    -2
100
AcDbLine
 10
384.28013
 20
249.673961
 30
0.0
 11
400.91331
 21
249.673961
 31
0.0
  0
LINE
  5
52F
330
52C
100
AcDbEntity
  8
FD_Dimensions
 62
     0
440
 16777216
370
    -2
100
AcDbLine
 10
384.73013
 20
218.323961
 30
0.0
 11
400.91331
 21
218.323961
 31
0.0
  0
LINE
  5
530
330
52C
100
AcDbEntity
  8
FD_Dimensions
 62
     0
440
 16777216
370
    -2
100
AcDbLine
 10
398.81331
 20
246.173961
 30
0.0
 11
398.81331
 21
221.823961
 31
0.0
  0
SOLID
  5
531
330
52C
100
AcDbEntity
  8
FD_Dimensions
 62
     0
440
 16777216
100
AcDbTrace
 10
398.229976
 20
246.173961
 30
0.0
 11
399.396643
 21
246.173961
 31
0.0
 12
398.81331
 22
249.673961
 32
0.0
 13
398.81331
 23
249.673961
 33
0.0
  0
SOLID
  5
532
330
52C
100
AcDbEntity
  8
FD_Dimensions
 62
     0
440
 16777216
100
AcDbTrace
 10
398.229976
 20
221.823961
 30
0.0
 11
399.396643
 21
221.823961
 31
0.0
 12
398.81331
 22
218.323961
 32
0.0
 13
398.81331
 23
218.323961
 33
0.0
  0
MTEXT
  5
533
330
52C
100
AcDbEntity
  8
FD_Dimensions
 62
     0
440
 16777216
100
AcDbMText
 10
395.626304
 20
233.998961
 30
0.0
 40
3.5
 41
0.0
 46
0.0
 71
     5
 72
     1
  1
20.9
 11
0.0
 21
1.0
 31
0.0
 73
     1
 44
1.0
  0
POINT
  5
534
330
52C
100
AcDbEntity
  8
Defpoints
 62
     0
440
 16777216
100
AcDbPoint
 10
382.18013
 20
249.673961
 30
0.0
  0
POINT
  5
535
330
52C
100
AcDbEntity
  8
Defpoints
 62
     0
440
 16777216
100
AcDbPoint
 10
382.63013
 20
218.323961
 30
0.0
  0
POINT
  5
536
330
52C
100
AcDbEntity
  8
Defpoints
 62
     0
440
 16777216
100
AcDbPoint
 10
398.81331
 20
218.323961
 30
0.0
  0
ENDBLK
  5
537
330
52C
100
AcDbEntity
  8
0
100
AcDbBlockEnd
  0
BLOCK
  5
53A
330
539
100
AcDbEntity
  8
0
100
AcDbBlockBegin
  2
*D9
 70
     1
 10
0.0
 20
0.0
 30
0.0
  3
*D9
  1

  0
LINE
  5
53B
330
539
100
AcDbEntity
  8
FD_Dimensions
 62
     0
440
 16777216
370
    -2
100
AcDbLine
 10
384.73013
 20
243.669493
 30
0.0
 11
392.931055
 21
243.669493
 31
0.0
  0
LINE
  5
53C
330
539
100
AcDbEntity
  8
FD_Dimensions
 62
     0
440
 16777216
370
    -2
100
AcDbLine
 10
384.73013
 20
218.323961
 30
0.0
 11
392.931055
 21
218.323961
 31
0.0
  0
LINE
  5
53D
330
539
100
AcDbEntity
  8
FD_Dimensions
 62
     0
440
 16777216
370
    -2
100
AcDbLine
 10
390.831055
 20
240.169493
 30
0.0
 11
390.831055
 21
221.823961
 31
0.0
  0
SOLID
  5
53E
330
539
100
AcDbEntity
  8
FD_Dimensions
 62
     0
440
 16777216
100
AcDbTrace
 10
390.247722
 20
240.169493
 30
0.0
 11
391.414389
 21
240.169493
 31
0.0
 12
390.831055
 22
243.669493
 32
0.0
 13
390.831055
 23
243.669493
 33
0.0
  0
SOLID
  5
53F
330
539
100
AcDbEntity
  8
FD_Dimensions
 62
     0
440
 16777216
100
AcDbTrace
 10
390.247722
 20
221.823961
 30
0.0
 11
391.414389
 21
221.823961
 31
0.0
 12
390.831055
 22
218.323961
 32
0.0
 13
390.831055
 23
218.323961
 33
0.0
  0
MTEXT
  5
540
330
539
100
AcDbEntity
  8
FD_Dimensions
 62
     0
440
 16777216
100
AcDbMText
 10
387.64405
 20
230.996727
 30
0.0
 40
3.5
 41
0.0
 46
0.0
 71
     5
 72
     1
  1
16.9
 11
0.0
 21
1.0
 31
0.0
 73
     1
 44
1.0
  0
POINT
  5
541
330
539
100
AcDbEntity
  8
Defpoints
 62
     0
440
 16777216
100
AcDbPoint
 10
382.63013
 20
243.669493
 30
0.0
  0
POINT
  5
542
330
539
100
AcDbEntity
  8
Defpoints
 62
     0
440
 16777216
100
AcDbPoint
 10
382.63013
 20
218.323961
 30
0.0
  0
POINT
  5
543
330
539
100
AcDbEntity
  8
Defpoints
 62
     0
440
 16777216
100
AcDbPoint
 10
390.831055
 20
218.323961
 30
0.0
  0
ENDBLK
  5
544
330
539
100
AcDbEntity
  8
0
100
AcDbBlockEnd
  0
BLOCK
  5
547
330
546
100
AcDbEntity
  8
0
100
AcDbBlockBegin
  2
*D10
 70
     1
 10
0.0
 20
0.0
 30
0.0
  3
*D10
  1

  0
LINE
  5
548
330
546
100
AcDbEntity
  8
FD_Dimensions
 62
     0
440
 16777216
370
    -2
100
AcDbLine
 10
384.28013
 20
249.673961
 30
0.0
 11
409.106681
 21
249.673961
 31
0.0
  0
LINE
  5
549
330
546
100
AcDbEntity
  8
FD_Dimensions
 62
     0
440
 16777216
370
    -2
100
AcDbLine
 10
384.966344
 20
215.923961
 30
0.0
 11
409.106681
 21
215.923961
 31
0.0
  0
LINE
  5
54A
330
546
100
AcDbEntity
  8
FD_Dimensions
 62
     0
440
 16777216
370
    -2
100
AcDbLine
 10
407.006681
 20
246.173961
 30
0.0
 11
407.006681
 21
219.423961
 31
0.0
  0
SOLID
  5
54B
330
546
100
AcDbEntity
  8
FD_Dimensions
 62
     0
440
 16777216
100
AcDbTrace
 10
406.4233479999999
 20
246.173961
 30
0.0
 11
407.5900139999999
 21
246.173961
 31
0.0
 12
407.006681
 22
249.673961
 32
0.0
 13
407.006681
 23
249.673961
 33
0.0
  0
SOLID
  5
54C
330
546
100
AcDbEntity
  8
FD_Dimensions
 62
     0
440
 16777216
100
AcDbTrace
 10
406.4233479999999
 20
219.423961
 30
0.0
 11
407.5900139999999
 21
219.423961
 31
0.0
 12
407.006681
 22
215.923961
 32
0.0
 13
407.006681
 23
215.923961
 33
0.0
  0
MTEXT
  5
54D
330
546
100
AcDbEntity
  8
FD_Dimensions
 62
     0
440
 16777216
100
AcDbMText
 10
403.819675
 20
232.798961
 30
0.0
 40
3.5
 41
0.0
 46
0.0
 71
     5
 72
     1
  1
22.5
 11
0.0
 21
1.0
 31
0.0
 73
     1
 44
1.0
  0
POINT
  5
54E
330
546
100
AcDbEntity
  8
Defpoints
 62
     0
440
 16777216
100
AcDbPoint
 10
382.18013
 20
249.673961
 30
0.0
  0
POINT
  5
54F
330
546
100
AcDbEntity
  8
Defpoints
 62
     0
440
 16777216
100
AcDbPoint
 10
382.866344
 20
215.923961
 30
0.0
  0
POINT
  5
550
330
546
100
AcDbEntity
  8
Defpoints
 62
     0
440
 16777216
100
AcDbPoint
 10
407.006681
 20
215.923961
 30
0.0
  0
ENDBLK
  5
551
330
546
100
AcDbEntity
  8
0
100
AcDbBlockEnd
  0
BLOCK
  5
554
330
553
100
AcDbEntity
  8
0
100
AcDbBlockBegin
  2
*D11
 70
     1
 10
0.0
 20
0.0
 30
0.0
  3
*D11
  1

  0
LINE
  5
555
330
553
100
AcDbEntity
  8
FD_Dimensions
 62
     0
440
 16777216
370
    -2
100
AcDbLine
 10
356.149645
 20
214.262711
 30
0.0
 11
356.149645
 21
203.762711
 31
0.0
  0
LINE
  5
556
330
553
100
AcDbEntity
  8
FD_Dimensions
 62
     0
440
 16777216
370
    -2
100
AcDbLine
 10
383.310614
 20
214.262711
 30
0.0
 11
383.310614
 21
203.762711
 31
0.0
  0
LINE
  5
557
330
553
100
AcDbEntity
  8
FD_Dimensions
 62
     0
440
 16777216
370
    -2
100
AcDbLine
 10
359.649645
 20
205.862711
 30
0.0
 11
379.810614
 21
205.862711
 31
0.0
  0
SOLID
  5
558
330
553
100
AcDbEntity
  8
FD_Dimensions
 62
     0
440
 16777216
100
AcDbTrace
 10
359.649645
 20
206.446045
 30
0.0
 11
359.649645
 21
205.279378
 31
0.0
 12
356.149645
 22
205.862711
 32
0.0
 13
356.149645
 23
205.862711
 33
0.0
  0
SOLID
  5
559
330
553
100
AcDbEntity
  8
FD_Dimensions
 62
     0
440
 16777216
100
AcDbTrace
 10
379.810614
 20
206.446045
 30
0.0
 11
379.810614
 21
205.279378
 31
0.0
 12
383.310614
 22
205.862711
 32
0.0
 13
383.310614
 23
205.862711
 33
0.0
  0
MTEXT
  5
55A
330
553
100
AcDbEntity
  8
FD_Dimensions
 62
     0
440
 16777216
100
AcDbMText
 10
369.73013
 20
209.049717
 30
0.0
 40
3.5
 41
0.0
 46
0.0
 71
     5
 72
     1
  1
18.11
 73
     1
 44
1.0
  0
POINT
  5
55B
330
553
100
AcDbEntity
  8
Defpoints
 62
     0
440
 16777216
100
AcDbPoint
 10
356.149645
 20
216.362711
 30
0.0
  0
POINT
  5
55C
330
553
100
AcDbEntity
  8
Defpoints
 62
     0
440
 16777216
100
AcDbPoint
 10
383.310614
 20
216.362711
 30
0.0
  0
POINT
  5
55D
330
553
100
AcDbEntity
  8
Defpoints
 62
     0
440
 16777216
100
AcDbPoint
 10
383.310614
 20
205.862711
 30
0.0
  0
ENDBLK
  5
55E
330
553
100
AcDbEntity
  8
0
100
AcDbBlockEnd
  0
BLOCK
  5
561
330
560
100
AcDbEntity
  8
0
100
AcDbBlockBegin
  2
*D12
 70
     1
 10
0.0
 20
0.0
 30
0.0
  3
*D12
  1

  0
LINE
  5
562
330
560
100
AcDbEntity
  8
FD_Dimensions
 62
     0
440
 16777216
370
    -2
100
AcDbLine
 10
179.748185
 20
139.748126
 30
0.0
 11
179.678698
 21
132.621285
 31
0.0
  0
LINE
  5
563
330
560
100
AcDbEntity
  8
FD_Dimensions
 62
     0
440
 16777216
370
    -2
100
AcDbLine
 10
191.748185
 20
139.631126
 30
0.0
 11
191.678698
 21
132.504285
 31
0.0
  0
LINE
  5
564
330
560
100
AcDbEntity
  8
FD_Dimensions
 62
     0
440
 16777216
370
    -2
100
AcDbLine
 10
183.199006
 20
134.687062
 30
0.0
 11
188.199338
 21
134.638309
 31
0.0
  0
SOLID
  5
565
330
560
100
AcDbEntity
  8
FD_Dimensions
 62
     0
440
 16777216
100
AcDbTrace
 10
183.204693
 20
135.270368
 30
0.0
 11
183.193318
 21
134.103756
 31
0.0
 12
179.699172
 22
134.721185
 32
0.0
 13
179.699172
 23
134.721185
 33
0.0
  0
SOLID
  5
566
330
560
100
AcDbEntity
  8
FD_Dimensions
 62
     0
440
 16777216
100
AcDbTrace
 10
188.205026
 20
135.221614
 30
0.0
 11
188.193651
 21
134.055003
 31
0.0
 12
191.699172
 22
134.604185
 32
0.0
 13
191.699172
 23
134.604185
 33
0.0
  0
MTEXT
  5
567
330
560
100
AcDbEntity
  8
FD_Dimensions
 62
     0
440
 16777216
100
AcDbMText
 10
185.730256
 20
137.850733
 30
0.0
 40
3.5
 41
0.0
 46
0.0
 71
     5
 72
     1
  1
30
 11
0.9999524675758834
 21
-0.0097500045590837
 31
0.0
 73
     1
 44
1.0
  0
POINT
  5
568
330
560
100
AcDbEntity
  8
Defpoints
 62
     0
440
 16777216
100
AcDbPoint
 10
179.768659
 20
141.848026
 30
0.0
  0
POINT
  5
569
330
560
100
AcDbEntity
  8
Defpoints
 62
     0
440
 16777216
100
AcDbPoint
 10
191.768659
 20
141.731026
 30
0.0
  0
POINT
  5
56A
330
560
100
AcDbEntity
  8
Defpoints
 62
     0
440
 16777216
100
AcDbPoint
 10
191.699172
 20
134.604185
 30
0.0
  0
ENDBLK
  5
56B
330
560
100
AcDbEntity
  8
0
100
AcDbBlockEnd
  0
BLOCK
  5
56E
330
56D
100
AcDbEntity
  8
0
100
AcDbBlockBegin
  2
*D13
 70
     1
 10
0.0
 20
0.0
 30
0.0
  3
*D13
  1

  0
LINE
  5
56F
330
56D
100
AcDbEntity
  8
FD_Dimensions
 62
     0
440
 16777216
370
    -2
100
AcDbLine
 10
192.668659
 20
147.732057
 30
0.0
 11
200.741209
 21
147.732057
 31
0.0
  0
LINE
  5
570
330
56D
100
AcDbEntity
  8
FD_Dimensions
 62
     0
440
 16777216
370
    -2
100
AcDbLine
 10
193.868659
 20
141.731026
 30
0.0
 11
200.741209
 21
141.731026
 31
0.0
  0
LINE
  5
571
330
56D
100
AcDbEntity
  8
FD_Dimensions
 62
     0
440
 16777216
370
    -2
100
AcDbLine
 10
198.641209
 20
151.232057
 30
0.0
 11
198.641209
 21
154.732057
 31
0.0
  0
LINE
  5
572
330
56D
100
AcDbEntity
  8
FD_Dimensions
 62
     0
440
 16777216
370
    -2
100
AcDbLine
 10
198.641209
 20
138.231026
 30
0.0
 11
198.641209
 21
127.220589
 31
0.0
  0
LINE
  5
573
330
56D
100
AcDbEntity
  8
FD_Dimensions
 62
     0
440
 16777216
370
    -2
100
AcDbLine
 10
198.641209
 20
147.732057
 30
0.0
 11
198.641209
 21
141.731026
 31
0.0
  0
SOLID
  5
574
330
56D
100
AcDbEntity
  8
FD_Dimensions
 62
     0
440
 16777216
100
AcDbTrace
 10
198.057876
 20
151.232057
 30
0.0
 11
199.224543
 21
151.232057
 31
0.0
 12
198.641209
 22
147.732057
 32
0.0
 13
198.641209
 23
147.732057
 33
0.0
  0
SOLID
  5
575
330
56D
100
AcDbEntity
  8
FD_Dimensions
 62
     0
440
 16777216
100
AcDbTrace
 10
198.057876
 20
138.231026
 30
0.0
 11
199.224543
 21
138.231026
 31
0.0
 12
198.641209
 22
141.731026
 32
0.0
 13
198.641209
 23
141.731026
 33
0.0
  0
MTEXT
  5
576
330
56D
100
AcDbEntity
  8
FD_Dimensions
 62
     0
440
 16777216
100
AcDbMText
 10
195.454204
 20
130.975807
 30
0.0
 40
3.5
 41
0.0
 46
0.0
 71
     5
 72
     1
  1
15
 11
0.0
 21
1.0
 31
0.0
 73
     1
 44
1.0
  0
POINT
  5
577
330
56D
100
AcDbEntity
  8
Defpoints
 62
     0
440
 16777216
100
AcDbPoint
 10
190.568659
 20
147.732057
 30
0.0
  0
POINT
  5
578
330
56D
100
AcDbEntity
  8
Defpoints
 62
     0
440
 16777216
100
AcDbPoint
 10
191.768659
 20
141.731026
 30
0.0
  0
POINT
  5
579
330
56D
100
AcDbEntity
  8
Defpoints
 62
     0
440
 16777216
100
AcDbPoint
 10
198.641209
 20
141.731026
 30
0.0
  0
ENDBLK
  5
57A
330
56D
100
AcDbEntity
  8
0
100
AcDbBlockEnd
  0
BLOCK
  5
590
330
58F
100
AcDbEntity
  8
0
100
AcDbBlockBegin
  2
*D14
 70
     1
 10
0.0
 20
0.0
 30
0.0
  3
*D14
  1

  0
LINE
  5
114B
330
58F
100
AcDbEntity
  8
FD_Dimensions
 62
     0
440
 16777216
370
    -2
100
AcDbLine
 10
757.2540419999998
 20
374.1602665
 30
0.0
 11
757.2540419999998
 21
400.4102665
 31
0.0
  0
LINE
  5
114C
330
58F
100
AcDbEntity
  8
FD_Dimensions
 62
     0
440
 16777216
370
    -2
100
AcDbLine
 10
57.25404200000001
 20
374.1602665
 30
0.0
 11
57.25404200000001
 21
400.4102665
 31
0.0
  0
LINE
  5
114D
330
58F
100
AcDbEntity
  8
FD_Dimensions
 62
     0
440
 16777216
370
    -2
100
AcDbLine
 10
757.2540419999998
 20
398.3102665
 30
0.0
 11
57.25404200000001
 21
398.3102665
 31
0.0
  0
INSERT
  5
114E
330
58F
100
AcDbEntity
  8
FD_Dimensions
 62
     0
440
 16777216
370
    -2
100
AcDbBlockReference
  2
_Oblique
 10
757.2540419999998
 20
398.3102665
 30
0.0
 41
3.5
 42
3.5
 43
3.5
  0
INSERT
  5
114F
330
58F
100
AcDbEntity
  8
FD_Dimensions
 62
     0
440
 16777216
370
    -2
100
AcDbBlockReference
  2
_Oblique
 10
57.25404200000001
 20
398.3102665
 30
0.0
 41
3.5
 42
3.5
 43
3.5
 50
180.0
  0
MTEXT
  5
1150
330
58F
100
AcDbEntity
  8
FD_Dimensions
 62
     0
440
 16777216
100
AcDbMText
 10
407.2540419999999
 20
401.4972719570259
 30
0.0
 40
3.5
 41
0.0
 46
0.0
 71
     5
 72
     1
  1
1750
 73
     1
 44
1.0
  0
POINT
  5
1151
330
58F
100
AcDbEntity
  8
Defpoints
 62
     0
440
 16777216
100
AcDbPoint
 10
757.2540419999998
 20
372.0602665
 30
0.0
  0
POINT
  5
1152
330
58F
100
AcDbEntity
  8
Defpoints
 62
     0
440
 16777216
100
AcDbPoint
 10
57.25404200000001
 20
372.0602665
 30
0.0
  0
POINT
  5
1153
330
58F
100
AcDbEntity
  8
Defpoints
 62
     0
440
 16777216
100
AcDbPoint
 10
57.25404200000001
 20
398.3102665
 30
0.0
  0
ENDBLK
  5
591
330
58F
100
AcDbEntity
  8
0
100
AcDbBlockEnd
  0
BLOCK
  5
59C
330
59B
100
AcDbEntity
  8
0
100
AcDbBlockBegin
  2
*D15
 70
     1
 10
0.0
 20
0.0
 30
0.0
  3
*D15
  1

  0
LINE
  5
1154
330
59B
100
AcDbEntity
  8
FD_Dimensions
 62
     0
440
 16777216
370
    -2
100
AcDbLine
 10
38.11173700000001
 20
374.1602665
 30
0.0
 11
38.11173700000001
 21
400.8050615000001
 31
0.0
  0
LINE
  5
1155
330
59B
100
AcDbEntity
  8
FD_Dimensions
 62
     0
440
 16777216
370
    -2
100
AcDbLine
 10
39.31173700000001
 20
374.1602665
 30
0.0
 11
39.31173700000001
 21
400.8050615000001
 31
0.0
  0
LINE
  5
1156
330
59B
100
AcDbEntity
  8
FD_Dimensions
 62
     0
440
 16777216
370
    -2
100
AcDbLine
 10
39.31173700000001
 20
398.7050615000002
 30
0.0
 11
42.811737
 21
398.7050615000002
 31
0.0
  0
LINE
  5
1157
330
59B
100
AcDbEntity
  8
FD_Dimensions
 62
     0
440
 16777216
370
    -2
100
AcDbLine
 10
38.11173700000001
 20
398.7050615000002
 30
0.0
 11
7.05723495361529
 21
398.7050615000002
 31
0.0
  0
LINE
  5
1158
330
59B
100
AcDbEntity
  8
FD_Dimensions
 62
     0
440
 16777216
370
    -2
100
AcDbLine
 10
39.31173700000001
 20
398.7050615000002
 30
0.0
 11
38.11173700000001
 21
398.7050615000002
 31
0.0
  0
INSERT
  5
1159
330
59B
100
AcDbEntity
  8
FD_Dimensions
 62
     0
440
 16777216
370
    -2
100
AcDbBlockReference
  2
_Oblique
 10
39.31173700000001
 20
398.7050615000002
 30
0.0
 41
3.5
 42
3.5
 43
3.5
 50
180.0
  0
INSERT
  5
115A
330
59B
100
AcDbEntity
  8
FD_Dimensions
 62
     0
440
 16777216
370
    -2
100
AcDbBlockReference
  2
_Oblique
 10
38.11173700000001
 20
398.7050615000002
 30
0.0
 41
3.5
 42
3.5
 43
3.5
  0
MTEXT
  5
115B
330
59B
100
AcDbEntity
  8
FD_Dimensions
 62
     0
440
 16777216
100
AcDbMText
 10
9.603210396998647
 20
401.8932606814463
 30
0.0
 40
3.5
 41
0.0
 46
0.0
 71
     5
 72
     1
  1
3
 73
     1
 44
1.0
  0
POINT
  5
115C
330
59B
100
AcDbEntity
  8
Defpoints
 62
     0
440
 16777216
100
AcDbPoint
 10
38.11173700000001
 20
372.0602665
 30
0.0
  0
POINT
  5
115D
330
59B
100
AcDbEntity
  8
Defpoints
 62
     0
440
 16777216
100
AcDbPoint
 10
39.31173700000001
 20
372.0602665
 30
0.0
  0
POINT
  5
115E
330
59B
100
AcDbEntity
  8
Defpoints
 62
     0
440
 16777216
100
AcDbPoint
 10
39.31173700000001
 20
398.7050615000002
 30
0.0
  0
ENDBLK
  5
59D
330
59B
100
AcDbEntity
  8
0
100
AcDbBlockEnd
  0
BLOCK
  5
5AA
330
5A9
100
AcDbEntity
  8
0
100
AcDbBlockBegin
  2
*D16
 70
     1
 10
0.0
 20
0.0
 30
0.0
  3
*D16
  1

  0
LINE
  5
115F
330
5A9
100
AcDbEntity
  8
FD_Dimensions
 62
     0
440
 16777216
370
    -2
100
AcDbLine
 10
775.254042
 20
374.1602665
 30
0.0
 11
775.254042
 21
400.4102665
 31
0.0
  0
LINE
  5
1160
330
5A9
100
AcDbEntity
  8
FD_Dimensions
 62
     0
440
 16777216
370
    -2
100
AcDbLine
 10
776.4540419999998
 20
374.1602665
 30
0.0
 11
776.4540419999998
 21
400.4102665
 31
0.0
  0
LINE
  5
1161
330
5A9
100
AcDbEntity
  8
FD_Dimensions
 62
     0
440
 16777216
370
    -2
100
AcDbLine
 10
775.254042
 20
398.3102665
 30
0.0
 11
771.754042
 21
398.3102665
 31
0.0
  0
LINE
  5
1162
330
5A9
100
AcDbEntity
  8
FD_Dimensions
 62
     0
440
 16777216
370
    -2
100
AcDbLine
 10
776.4540419999998
 20
398.3102665
 30
0.0
 11
788.5459928867666
 21
398.3102665
 31
0.0
  0
LINE
  5
1163
330
5A9
100
AcDbEntity
  8
FD_Dimensions
 62
     0
440
 16777216
370
    -2
100
AcDbLine
 10
775.254042
 20
398.3102665
 30
0.0
 11
776.4540419999998
 21
398.3102665
 31
0.0
  0
INSERT
  5
1164
330
5A9
100
AcDbEntity
  8
FD_Dimensions
 62
     0
440
 16777216
370
    -2
100
AcDbBlockReference
  2
_Oblique
 10
775.254042
 20
398.3102665
 30
0.0
 41
3.5
 42
3.5
 43
3.5
  0
INSERT
  5
1165
330
5A9
100
AcDbEntity
  8
FD_Dimensions
 62
     0
440
 16777216
370
    -2
100
AcDbBlockReference
  2
_Oblique
 10
776.4540419999998
 20
398.3102665
 30
0.0
 41
3.5
 42
3.5
 43
3.5
 50
180.0
  0
MTEXT
  5
1166
330
5A9
100
AcDbEntity
  8
FD_Dimensions
 62
     0
440
 16777216
100
AcDbMText
 10
786.0000174433832
 20
401.4984656814461
 30
0.0
 40
3.5
 41
0.0
 46
0.0
 71
     5
 72
     1
  1
3
 73
     1
 44
1.0
  0
POINT
  5
1167
330
5A9
100
AcDbEntity
  8
Defpoints
 62
     0
440
 16777216
100
AcDbPoint
 10
775.254042
 20
372.0602665
 30
0.0
  0
POINT
  5
1168
330
5A9
100
AcDbEntity
  8
Defpoints
 62
     0
440
 16777216
100
AcDbPoint
 10
776.4540419999998
 20
372.0602665
 30
0.0
  0
POINT
  5
1169
330
5A9
100
AcDbEntity
  8
Defpoints
 62
     0
440
 16777216
100
AcDbPoint
 10
776.4540419999998
 20
398.3102665
 30
0.0
  0
ENDBLK
  5
5AB
330
5A9
100
AcDbEntity
  8
0
100
AcDbBlockEnd
  0
BLOCK
  5
5B8
330
5B7
100
AcDbEntity
  8
0
100
AcDbBlockBegin
  2
*D17
 70
     1
 10
0.0
 20
0.0
 30
0.0
  3
*D17
  1

  0
LINE
  5
B64
330
5B7
100
AcDbEntity
  8
FD_Dimensions
 62
     0
440
 16777216
370
    -2
100
AcDbLine
 10
356.53013
 20
266.019493
 30
0.0
 11
356.53013
 21
273.602643
 31
0.0
  0
LINE
  5
B65
330
5B7
100
AcDbEntity
  8
FD_Dimensions
 62
     0
440
 16777216
370
    -2
100
AcDbLine
 10
382.93013
 20
266.019493
 30
0.0
 11
382.93013
 21
273.602643
 31
0.0
  0
LINE
  5
B66
330
5B7
100
AcDbEntity
  8
FD_Dimensions
 62
     0
440
 16777216
370
    -2
100
AcDbLine
 10
360.03013
 20
271.502643
 30
0.0
 11
379.43013
 21
271.502643
 31
0.0
  0
SOLID
  5
B67
330
5B7
100
AcDbEntity
  8
FD_Dimensions
 62
     0
440
 16777216
100
AcDbTrace
 10
360.03013
 20
272.085976
 30
0.0
 11
360.03013
 21
270.919309
 31
0.0
 12
356.53013
 22
271.502643
 32
0.0
 13
356.53013
 23
271.502643
 33
0.0
  0
SOLID
  5
B68
330
5B7
100
AcDbEntity
  8
FD_Dimensions
 62
     0
440
 16777216
100
AcDbTrace
 10
379.43013
 20
272.085976
 30
0.0
 11
379.43013
 21
270.919309
 31
0.0
 12
382.93013
 22
271.502643
 32
0.0
 13
382.93013
 23
271.502643
 33
0.0
  0
MTEXT
  5
B69
330
5B7
100
AcDbEntity
  8
FD_Dimensions
 62
     0
440
 16777216
100
AcDbMText
 10
369.73013
 20
274.689648
 30
0.0
 40
3.5
 41
0.0
 46
0.0
 71
     5
 72
     1
  1
17.6
 73
     1
 44
1.0
  0
POINT
  5
B6A
330
5B7
100
AcDbEntity
  8
Defpoints
 62
     0
440
 16777216
100
AcDbPoint
 10
356.53013
 20
263.919493
 30
0.0
  0
POINT
  5
B6B
330
5B7
100
AcDbEntity
  8
Defpoints
 62
     0
440
 16777216
100
AcDbPoint
 10
382.93013
 20
263.919493
 30
0.0
  0
POINT
  5
B6C
330
5B7
100
AcDbEntity
  8
Defpoints
 62
     0
440
 16777216
100
AcDbPoint
 10
382.93013
 20
271.502643
 30
0.0
  0
ENDBLK
  5
5B9
330
5B7
100
AcDbEntity
  8
0
100
AcDbBlockEnd
  0
BLOCK
  5
5C4
330
5C3
100
AcDbEntity
  8
0
100
AcDbBlockBegin
  2
*D18
 70
     1
 10
0.0
 20
0.0
 30
0.0
  3
*D18
  1

  0
LINE
  5
B6D
330
5C3
100
AcDbEntity
  8
FD_Dimensions
 62
     0
440
 16777216
370
    -2
100
AcDbLine
 10
382.859363
 20
258.669493
 30
0.0
 11
395.500878
 21
258.669493
 31
0.0
  0
LINE
  5
B6E
330
5C3
100
AcDbEntity
  8
FD_Dimensions
 62
     0
440
 16777216
370
    -2
100
AcDbLine
 10
384.28013
 20
264.669493
 30
0.0
 11
395.500878
 21
264.669493
 31
0.0
  0
LINE
  5
B6F
330
5C3
100
AcDbEntity
  8
FD_Dimensions
 62
     0
440
 16777216
370
    -2
100
AcDbLine
 10
393.400878
 20
255.169493
 30
0.0
 11
393.400878
 21
251.669493
 31
0.0
  0
LINE
  5
B70
330
5C3
100
AcDbEntity
  8
FD_Dimensions
 62
     0
440
 16777216
370
    -2
100
AcDbLine
 10
393.400878
 20
268.169493
 30
0.0
 11
393.400878
 21
271.669493
 31
0.0
  0
LINE
  5
B71
330
5C3
100
AcDbEntity
  8
FD_Dimensions
 62
     0
440
 16777216
370
    -2
100
AcDbLine
 10
393.400878
 20
258.669493
 30
0.0
 11
393.400878
 21
264.669493
 31
0.0
  0
SOLID
  5
B72
330
5C3
100
AcDbEntity
  8
FD_Dimensions
 62
     0
440
 16777216
100
AcDbTrace
 10
392.817545
 20
255.169493
 30
0.0
 11
393.984211
 21
255.169493
 31
0.0
 12
393.400878
 22
258.669493
 32
0.0
 13
393.400878
 23
258.669493
 33
0.0
  0
SOLID
  5
B73
330
5C3
100
AcDbEntity
  8
FD_Dimensions
 62
     0
440
 16777216
100
AcDbTrace
 10
392.817545
 20
268.169493
 30
0.0
 11
393.984211
 21
268.169493
 31
0.0
 12
393.400878
 22
264.669493
 32
0.0
 13
393.400878
 23
264.669493
 33
0.0
  0
MTEXT
  5
B74
330
5C3
100
AcDbEntity
  8
FD_Dimensions
 62
     0
440
 16777216
100
AcDbMText
 10
390.250878
 20
261.669493
 30
0.0
 40
3.5
 41
0.0
 46
0.0
 71
     5
 72
     1
  1
4
 11
0.0
 21
1.0
 31
0.0
 73
     1
 44
1.0
  0
POINT
  5
B75
330
5C3
100
AcDbEntity
  8
Defpoints
 62
     0
440
 16777216
100
AcDbPoint
 10
380.759363
 20
258.669493
 30
0.0
  0
POINT
  5
B76
330
5C3
100
AcDbEntity
  8
Defpoints
 62
     0
440
 16777216
100
AcDbPoint
 10
382.18013
 20
264.669493
 30
0.0
  0
POINT
  5
B77
330
5C3
100
AcDbEntity
  8
Defpoints
 62
     0
440
 16777216
100
AcDbPoint
 10
393.400878
 20
264.669493
 30
0.0
  0
ENDBLK
  5
5C5
330
5C3
100
AcDbEntity
  8
0
100
AcDbBlockEnd
  0
BLOCK
  5
5D2
330
5D1
100
AcDbEntity
  8
0
100
AcDbBlockBegin
  2
*D19
 70
     1
 10
0.0
 20
0.0
 30
0.0
  3
*D19
  1

  0
LINE
  5
B78
330
5D1
100
AcDbEntity
  8
FD_Dimensions
 62
     0
440
 16777216
370
    -2
100
AcDbLine
 10
384.28013
 20
249.673961
 30
0.0
 11
400.91331
 21
249.673961
 31
0.0
  0
LINE
  5
B79
330
5D1
100
AcDbEntity
  8
FD_Dimensions
 62
     0
440
 16777216
370
    -2
100
AcDbLine
 10
384.73013
 20
218.323961
 30
0.0
 11
400.91331
 21
218.323961
 31
0.0
  0
LINE
  5
B7A
330
5D1
100
AcDbEntity
  8
FD_Dimensions
 62
     0
440
 16777216
370
    -2
100
AcDbLine
 10
398.81331
 20
246.173961
 30
0.0
 11
398.81331
 21
221.823961
 31
0.0
  0
SOLID
  5
B7B
330
5D1
100
AcDbEntity
  8
FD_Dimensions
 62
     0
440
 16777216
100
AcDbTrace
 10
398.229976
 20
246.173961
 30
0.0
 11
399.396643
 21
246.173961
 31
0.0
 12
398.81331
 22
249.673961
 32
0.0
 13
398.81331
 23
249.673961
 33
0.0
  0
SOLID
  5
B7C
330
5D1
100
AcDbEntity
  8
FD_Dimensions
 62
     0
440
 16777216
100
AcDbTrace
 10
398.229976
 20
221.823961
 30
0.0
 11
399.396643
 21
221.823961
 31
0.0
 12
398.81331
 22
218.323961
 32
0.0
 13
398.81331
 23
218.323961
 33
0.0
  0
MTEXT
  5
B7D
330
5D1
100
AcDbEntity
  8
FD_Dimensions
 62
     0
440
 16777216
100
AcDbMText
 10
395.626304
 20
233.998961
 30
0.0
 40
3.5
 41
0.0
 46
0.0
 71
     5
 72
     1
  1
20.9
 11
0.0
 21
1.0
 31
0.0
 73
     1
 44
1.0
  0
POINT
  5
B7E
330
5D1
100
AcDbEntity
  8
Defpoints
 62
     0
440
 16777216
100
AcDbPoint
 10
382.18013
 20
249.673961
 30
0.0
  0
POINT
  5
B7F
330
5D1
100
AcDbEntity
  8
Defpoints
 62
     0
440
 16777216
100
AcDbPoint
 10
382.63013
 20
218.323961
 30
0.0
  0
POINT
  5
B80
330
5D1
100
AcDbEntity
  8
Defpoints
 62
     0
440
 16777216
100
AcDbPoint
 10
398.81331
 20
218.323961
 30
0.0
  0
ENDBLK
  5
5D3
330
5D1
100
AcDbEntity
  8
0
100
AcDbBlockEnd
  0
BLOCK
  5
5DE
330
5DD
100
AcDbEntity
  8
0
100
AcDbBlockBegin
  2
*D20
 70
     1
 10
0.0
 20
0.0
 30
0.0
  3
*D20
  1

  0
LINE
  5
B81
330
5DD
100
AcDbEntity
  8
FD_Dimensions
 62
     0
440
 16777216
370
    -2
100
AcDbLine
 10
384.73013
 20
243.669493
 30
0.0
 11
392.931055
 21
243.669493
 31
0.0
  0
LINE
  5
B82
330
5DD
100
AcDbEntity
  8
FD_Dimensions
 62
     0
440
 16777216
370
    -2
100
AcDbLine
 10
384.73013
 20
218.323961
 30
0.0
 11
392.931055
 21
218.323961
 31
0.0
  0
LINE
  5
B83
330
5DD
100
AcDbEntity
  8
FD_Dimensions
 62
     0
440
 16777216
370
    -2
100
AcDbLine
 10
390.831055
 20
240.169493
 30
0.0
 11
390.831055
 21
221.823961
 31
0.0
  0
SOLID
  5
B84
330
5DD
100
AcDbEntity
  8
FD_Dimensions
 62
     0
440
 16777216
100
AcDbTrace
 10
390.247722
 20
240.169493
 30
0.0
 11
391.414389
 21
240.169493
 31
0.0
 12
390.831055
 22
243.669493
 32
0.0
 13
390.831055
 23
243.669493
 33
0.0
  0
SOLID
  5
B85
330
5DD
100
AcDbEntity
  8
FD_Dimensions
 62
     0
440
 16777216
100
AcDbTrace
 10
390.247722
 20
221.823961
 30
0.0
 11
391.414389
 21
221.823961
 31
0.0
 12
390.831055
 22
218.323961
 32
0.0
 13
390.831055
 23
218.323961
 33
0.0
  0
MTEXT
  5
B86
330
5DD
100
AcDbEntity
  8
FD_Dimensions
 62
     0
440
 16777216
100
AcDbMText
 10
387.64405
 20
230.996727
 30
0.0
 40
3.5
 41
0.0
 46
0.0
 71
     5
 72
     1
  1
16.9
 11
0.0
 21
1.0
 31
0.0
 73
     1
 44
1.0
  0
POINT
  5
B87
330
5DD
100
AcDbEntity
  8
Defpoints
 62
     0
440
 16777216
100
AcDbPoint
 10
382.63013
 20
243.669493
 30
0.0
  0
POINT
  5
B88
330
5DD
100
AcDbEntity
  8
Defpoints
 62
     0
440
 16777216
100
AcDbPoint
 10
382.63013
 20
218.323961
 30
0.0
  0
POINT
  5
B89
330
5DD
100
AcDbEntity
  8
Defpoints
 62
     0
440
 16777216
100
AcDbPoint
 10
390.831055
 20
218.323961
 30
0.0
  0
ENDBLK
  5
5DF
330
5DD
100
AcDbEntity
  8
0
100
AcDbBlockEnd
  0
BLOCK
  5
5EA
330
5E9
100
AcDbEntity
  8
0
100
AcDbBlockBegin
  2
*D21
 70
     1
 10
0.0
 20
0.0
 30
0.0
  3
*D21
  1

  0
LINE
  5
B8A
330
5E9
100
AcDbEntity
  8
FD_Dimensions
 62
     0
440
 16777216
370
    -2
100
AcDbLine
 10
384.28013
 20
249.673961
 30
0.0
 11
409.106681
 21
249.673961
 31
0.0
  0
LINE
  5
B8B
330
5E9
100
AcDbEntity
  8
FD_Dimensions
 62
     0
440
 16777216
370
    -2
100
AcDbLine
 10
384.966344
 20
215.923961
 30
0.0
 11
409.106681
 21
215.923961
 31
0.0
  0
LINE
  5
B8C
330
5E9
100
AcDbEntity
  8
FD_Dimensions
 62
     0
440
 16777216
370
    -2
100
AcDbLine
 10
407.006681
 20
246.173961
 30
0.0
 11
407.006681
 21
219.423961
 31
0.0
  0
SOLID
  5
B8D
330
5E9
100
AcDbEntity
  8
FD_Dimensions
 62
     0
440
 16777216
100
AcDbTrace
 10
406.4233479999999
 20
246.173961
 30
0.0
 11
407.5900139999999
 21
246.173961
 31
0.0
 12
407.006681
 22
249.673961
 32
0.0
 13
407.006681
 23
249.673961
 33
0.0
  0
SOLID
  5
B8E
330
5E9
100
AcDbEntity
  8
FD_Dimensions
 62
     0
440
 16777216
100
AcDbTrace
 10
406.4233479999999
 20
219.423961
 30
0.0
 11
407.5900139999999
 21
219.423961
 31
0.0
 12
407.006681
 22
215.923961
 32
0.0
 13
407.006681
 23
215.923961
 33
0.0
  0
MTEXT
  5
B8F
330
5E9
100
AcDbEntity
  8
FD_Dimensions
 62
     0
440
 16777216
100
AcDbMText
 10
403.819675
 20
232.798961
 30
0.0
 40
3.5
 41
0.0
 46
0.0
 71
     5
 72
     1
  1
22.5
 11
0.0
 21
1.0
 31
0.0
 73
     1
 44
1.0
  0
POINT
  5
B90
330
5E9
100
AcDbEntity
  8
Defpoints
 62
     0
440
 16777216
100
AcDbPoint
 10
382.18013
 20
249.673961
 30
0.0
  0
POINT
  5
B91
330
5E9
100
AcDbEntity
  8
Defpoints
 62
     0
440
 16777216
100
AcDbPoint
 10
382.866344
 20
215.923961
 30
0.0
  0
POINT
  5
B92
330
5E9
100
AcDbEntity
  8
Defpoints
 62
     0
440
 16777216
100
AcDbPoint
 10
407.006681
 20
215.923961
 30
0.0
  0
ENDBLK
  5
5EB
330
5E9
100
AcDbEntity
  8
0
100
AcDbBlockEnd
  0
BLOCK
  5
5F6
330
5F5
100
AcDbEntity
  8
0
100
AcDbBlockBegin
  2
*D22
 70
     1
 10
0.0
 20
0.0
 30
0.0
  3
*D22
  1

  0
LINE
  5
B93
330
5F5
100
AcDbEntity
  8
FD_Dimensions
 62
     0
440
 16777216
370
    -2
100
AcDbLine
 10
356.149645
 20
214.262711
 30
0.0
 11
356.149645
 21
203.762711
 31
0.0
  0
LINE
  5
B94
330
5F5
100
AcDbEntity
  8
FD_Dimensions
 62
     0
440
 16777216
370
    -2
100
AcDbLine
 10
383.310614
 20
214.262711
 30
0.0
 11
383.310614
 21
203.762711
 31
0.0
  0
LINE
  5
B95
330
5F5
100
AcDbEntity
  8
FD_Dimensions
 62
     0
440
 16777216
370
    -2
100
AcDbLine
 10
359.649645
 20
205.862711
 30
0.0
 11
379.810614
 21
205.862711
 31
0.0
  0
SOLID
  5
B96
330
5F5
100
AcDbEntity
  8
FD_Dimensions
 62
     0
440
 16777216
100
AcDbTrace
 10
359.649645
 20
206.446045
 30
0.0
 11
359.649645
 21
205.279378
 31
0.0
 12
356.149645
 22
205.862711
 32
0.0
 13
356.149645
 23
205.862711
 33
0.0
  0
SOLID
  5
B97
330
5F5
100
AcDbEntity
  8
FD_Dimensions
 62
     0
440
 16777216
100
AcDbTrace
 10
379.810614
 20
206.446045
 30
0.0
 11
379.810614
 21
205.279378
 31
0.0
 12
383.310614
 22
205.862711
 32
0.0
 13
383.310614
 23
205.862711
 33
0.0
  0
MTEXT
  5
B98
330
5F5
100
AcDbEntity
  8
FD_Dimensions
 62
     0
440
 16777216
100
AcDbMText
 10
369.73013
 20
209.049717
 30
0.0
 40
3.5
 41
0.0
 46
0.0
 71
     5
 72
     1
  1
18.11
 73
     1
 44
1.0
  0
POINT
  5
B99
330
5F5
100
AcDbEntity
  8
Defpoints
 62
     0
440
 16777216
100
AcDbPoint
 10
356.149645
 20
216.362711
 30
0.0
  0
POINT
  5
B9A
330
5F5
100
AcDbEntity
  8
Defpoints
 62
     0
440
 16777216
100
AcDbPoint
 10
383.310614
 20
216.362711
 30
0.0
  0
POINT
  5
B9B
330
5F5
100
AcDbEntity
  8
Defpoints
 62
     0
440
 16777216
100
AcDbPoint
 10
383.310614
 20
205.862711
 30
0.0
  0
ENDBLK
  5
5F7
330
5F5
100
AcDbEntity
  8
0
100
AcDbBlockEnd
  0
BLOCK
  5
602
330
601
100
AcDbEntity
  8
0
100
AcDbBlockBegin
  2
*D23
 70
     1
 10
0.0
 20
0.0
 30
0.0
  3
*D23
  1

  0
LINE
  5
116A
330
601
100
AcDbEntity
  8
FD_Dimensions
 62
     0
440
 16777216
370
    -2
100
AcDbLine
 10
392.2335679731331
 20
210.6949263085091
 30
0.0
 11
392.0598512236868
 21
192.8778238011912
 31
0.0
  0
LINE
  5
116B
330
601
100
AcDbEntity
  8
FD_Dimensions
 62
     0
440
 16777216
370
    -2
100
AcDbLine
 10
422.233567973133
 20
210.4024263085091
 30
0.0
 11
422.0598512236866
 21
192.5853238011912
 31
0.0
  0
LINE
  5
116C
330
601
100
AcDbEntity
  8
FD_Dimensions
 62
     0
440
 16777216
370
    -2
100
AcDbLine
 10
392.0803252505538
 20
194.9777239926822
 30
0.0
 11
422.0803252505537
 21
194.6852239926822
 31
0.0
  0
INSERT
  5
116D
330
601
100
AcDbEntity
  8
FD_Dimensions
 62
     0
440
 16777216
370
    -2
100
AcDbBlockReference
  2
_Oblique
 10
392.0803252505538
 20
194.9777239926822
 30
0.0
 41
3.5
 42
3.5
 43
3.5
 50
179.441383850448
  0
INSERT
  5
116E
330
601
100
AcDbEntity
  8
FD_Dimensions
 62
     0
440
 16777216
370
    -2
100
AcDbBlockReference
  2
_Oblique
 10
422.0803252505537
 20
194.6852239926822
 30
0.0
 41
3.5
 42
3.5
 43
3.5
 50
359.4413838504481
  0
MTEXT
  5
116F
330
601
100
AcDbEntity
  8
FD_Dimensions
 62
     0
440
 16777216
100
AcDbMText
 10
407.1113272473525
 20
198.0111659720442
 30
0.0
 40
3.5
 41
0.0
 46
0.0
 71
     5
 72
     1
  1
75
 11
0.9999524721385611
 21
-0.00974953660335
 31
0.0
 73
     1
 44
1.0
  0
POINT
  5
1170
330
601
100
AcDbEntity
  8
Defpoints
 62
     0
440
 16777216
100
AcDbPoint
 10
392.2540420000002
 20
212.7948265000001
 30
0.0
  0
POINT
  5
1171
330
601
100
AcDbEntity
  8
Defpoints
 62
     0
440
 16777216
100
AcDbPoint
 10
422.254042
 20
212.5023265000001
 30
0.0
  0
POINT
  5
1172
330
601
100
AcDbEntity
  8
Defpoints
 62
     0
440
 16777216
100
AcDbPoint
 10
422.0803252505537
 20
194.6852239926822
 30
0.0
  0
ENDBLK
  5
603
330
601
100
AcDbEntity
  8
0
100
AcDbBlockEnd
  0
BLOCK
  5
60E
330
60D
100
AcDbEntity
  8
0
100
AcDbBlockBegin
  2
*D24
 70
     1
 10
0.0
 20
0.0
 30
0.0
  3
*D24
  1

  0
LINE
  5
1173
330
60D
100
AcDbEntity
  8
FD_Dimensions
 62
     0
440
 16777216
370
    -2
100
AcDbLine
 10
421.3540420000002
 20
227.5049040000001
 30
0.0
 11
441.5354170000008
 21
227.5049040000001
 31
0.0
  0
LINE
  5
1174
330
60D
100
AcDbEntity
  8
FD_Dimensions
 62
     0
440
 16777216
370
    -2
100
AcDbLine
 10
424.3540420000003
 20
212.5023265000002
 30
0.0
 11
441.5354170000008
 21
212.5023265000002
 31
0.0
  0
LINE
  5
1175
330
60D
100
AcDbEntity
  8
FD_Dimensions
 62
     0
440
 16777216
370
    -2
100
AcDbLine
 10
439.4354170000008
 20
227.5049040000001
 30
0.0
 11
439.4354170000008
 21
212.5023265000002
 31
0.0
  0
INSERT
  5
1176
330
60D
100
AcDbEntity
  8
FD_Dimensions
 62
     0
440
 16777216
370
    -2
100
AcDbBlockReference
  2
_Oblique
 10
439.4354170000008
 20
227.5049040000001
 30
0.0
 41
3.5
 42
3.5
 43
3.5
 50
90.0
  0
INSERT
  5
1177
330
60D
100
AcDbEntity
  8
FD_Dimensions
 62
     0
440
 16777216
370
    -2
100
AcDbBlockReference
  2
_Oblique
 10
439.4354170000008
 20
212.5023265000002
 30
0.0
 41
3.5
 42
3.5
 43
3.5
 50
270.0
  0
MTEXT
  5
1178
330
60D
100
AcDbEntity
  8
FD_Dimensions
 62
     0
440
 16777216
100
AcDbMText
 10
436.2472178185546
 20
220.00361525
 30
0.0
 40
3.5
 41
0.0
 46
0.0
 71
     5
 72
     1
  1
37.51
 11
0.0000000000000001
 21
1.0
 31
0.0
 73
     1
 44
1.0
  0
POINT
  5
1179
330
60D
100
AcDbEntity
  8
Defpoints
 62
     0
440
 16777216
100
AcDbPoint
 10
419.2540420000002
 20
227.5049040000001
 30
0.0
  0
POINT
  5
117A
330
60D
100
AcDbEntity
  8
Defpoints
 62
     0
440
 16777216
100
AcDbPoint
 10
422.2540420000003
 20
212.5023265000002
 30
0.0
  0
POINT
  5
117B
330
60D
100
AcDbEntity
  8
Defpoints
 62
     0
440
 16777216
100
AcDbPoint
 10
439.4354170000008
 20
212.5023265000002
 30
0.0
  0
ENDBLK
  5
60F
330
60D
100
AcDbEntity
  8
0
100
AcDbBlockEnd
  0
BLOCK
  5
C61
330
C5F
100
AcDbEntity
  8
0
100
AcDbBlockBegin
  2
_Oblique
 70
     0
 10
0.0
 20
0.0
 30
0.0
  3
_Oblique
  1

  0
LINE
  5
C60
330
C5F
100
AcDbEntity
  8
0
  6
ByBlock
 62
     0
370
    -2
100
AcDbLine
 10
-0.5
 20
-0.5
 30
0.0
 11
0.5
 21
0.5
 31
0.0
  0
ENDBLK
  5
C62
330
C5F
100
AcDbEntity
  8
0
100
AcDbBlockEnd
  0
BLOCK
  5
10B1
330
10B0
100
AcDbEntity
  8
0
100
AcDbBlockBegin
  2
*D27
 70
     1
 10
0.0
 20
0.0
 30
0.0
  3
*D27
  1

  0
LINE
  5
10F0
330
10B0
100
AcDbEntity
  8
0
 62
     0
440
 16777216
370
    -2
100
AcDbLine
 10
347.8817381721626
 20
162.749834
 30
0.0
 11
347.8817381721626
 21
168.4860912999474
 31
0.0
  0
LINE
  5
10F1
330
10B0
100
AcDbEntity
  8
0
 62
     0
440
 16777216
370
    -2
100
AcDbLine
 10
354.9217381721626
 20
162.749834
 30
0.0
 11
354.9217381721626
 21
168.4860912999474
 31
0.0
  0
LINE
  5
10F2
330
10B0
100
AcDbEntity
  8
0
 62
     0
440
 16777216
370
    -2
100
AcDbLine
 10
344.3817381721626
 20
166.3860912999474
 30
0.0
 11
340.8817381721626
 21
166.3860912999474
 31
0.0
  0
LINE
  5
10F3
330
10B0
100
AcDbEntity
  8
0
 62
     0
440
 16777216
370
    -2
100
AcDbLine
 10
358.4217381721626
 20
166.3860912999474
 30
0.0
 11
371.0532524968557
 21
166.3860912999474
 31
0.0
  0
LINE
  5
10F4
330
10B0
100
AcDbEntity
  8
0
 62
     0
440
 16777216
370
    -2
100
AcDbLine
 10
347.8817381721626
 20
166.3860912999474
 30
0.0
 11
354.9217381721626
 21
166.3860912999474
 31
0.0
  0
SOLID
  5
10F5
330
10B0
100
AcDbEntity
  8
0
 62
     0
440
 16777216
100
AcDbTrace
 10
344.3817381721626
 20
166.9694246332808
 30
0.0
 11
344.3817381721626
 21
165.8027579666141
 31
0.0
 12
347.8817381721626
 22
166.3860912999474
 32
0.0
 13
347.8817381721626
 23
166.3860912999474
 33
0.0
  0
SOLID
  5
10F6
330
10B0
100
AcDbEntity
  8
0
 62
     0
440
 16777216
100
AcDbTrace
 10
358.4217381721626
 20
166.9694246332808
 30
0.0
 11
358.4217381721626
 21
165.8027579666141
 31
0.0
 12
354.9217381721626
 22
166.3860912999474
 32
0.0
 13
354.9217381721626
 23
166.3860912999474
 33
0.0
  0
MTEXT
  5
10F7
330
10B0
100
AcDbEntity
  8
0
 62
     0
440
 16777216
100
AcDbMText
 10
366.4874953345091
 20
169.5730967569734
 30
0.0
 40
3.5
 41
0.0
 46
0.0
 71
     5
 72
     1
  1
7.0
 73
     1
 44
1.0
  0
POINT
  5
10F8
330
10B0
100
AcDbEntity
  8
Defpoints
 62
     0
440
 16777216
100
AcDbPoint
 10
347.8817381721626
 20
160.649834
 30
0.0
  0
POINT
  5
10F9
330
10B0
100
AcDbEntity
  8
Defpoints
 62
     0
440
 16777216
100
AcDbPoint
 10
354.9217381721626
 20
160.649834
 30
0.0
  0
POINT
  5
10FA
330
10B0
100
AcDbEntity
  8
Defpoints
 62
     0
440
 16777216
100
AcDbPoint
 10
354.9217381721626
 20
166.3860912999474
 30
0.0
  0
ENDBLK
  5
10B2
330
10B0
100
AcDbEntity
  8
0
100
AcDbBlockEnd
  0
BLOCK
  5
10FD
330
10FC
100
AcDbEntity
  8
0
100
AcDbBlockBegin
  2
*D28
 70
     1
 10
0.0
 20
0.0
 30
0.0
  3
*D28
  1

  0
LINE
  5
110B
330
10FC
100
AcDbEntity
  8
0
 62
     0
440
 16777216
370
    -2
100
AcDbLine
 10
356.8217381721628
 20
160.849834
 30
0.0
 11
377.1982035221198
 21
160.849834
 31
0.0
  0
LINE
  5
110C
330
10FC
100
AcDbEntity
  8
0
 62
     0
440
 16777216
370
    -2
100
AcDbLine
 10
356.8217381721628
 20
159.249834
 30
0.0
 11
377.1982035221198
 21
159.249834
 31
0.0
  0
LINE
  5
110D
330
10FC
100
AcDbEntity
  8
0
 62
     0
440
 16777216
370
    -2
100
AcDbLine
 10
375.0982035221198
 20
164.349834
 30
0.0
 11
375.0982035221198
 21
167.849834
 31
0.0
  0
LINE
  5
110E
330
10FC
100
AcDbEntity
  8
0
 62
     0
440
 16777216
370
    -2
100
AcDbLine
 10
375.0982035221198
 20
155.749834
 30
0.0
 11
375.0982035221198
 21
143.4095884338336
 31
0.0
  0
LINE
  5
110F
330
10FC
100
AcDbEntity
  8
0
 62
     0
440
 16777216
370
    -2
100
AcDbLine
 10
375.0982035221198
 20
160.849834
 30
0.0
 11
375.0982035221198
 21
159.249834
 31
0.0
  0
SOLID
  5
1110
330
10FC
100
AcDbEntity
  8
0
 62
     0
440
 16777216
100
AcDbTrace
 10
374.5148701887865
 20
164.349834
 30
0.0
 11
375.6815368554531
 21
164.349834
 31
0.0
 12
375.0982035221198
 22
160.849834
 32
0.0
 13
375.0982035221198
 23
160.849834
 33
0.0
  0
SOLID
  5
1111
330
10FC
100
AcDbEntity
  8
0
 62
     0
440
 16777216
100
AcDbTrace
 10
374.5148701887865
 20
155.749834
 30
0.0
 11
375.6815368554531
 21
155.749834
 31
0.0
 12
375.0982035221198
 22
159.249834
 32
0.0
 13
375.0982035221198
 23
159.249834
 33
0.0
  0
MTEXT
  5
1112
330
10FC
100
AcDbEntity
  8
0
 62
     0
440
 16777216
100
AcDbMText
 10
371.9111980650938
 20
147.8297112169166
 30
0.0
 40
3.5
 41
0.0
 46
0.0
 71
     5
 72
     1
  1
1.6
 11
0.0000000000000001
 21
1.0
 31
0.0
 73
     1
 44
1.0
  0
POINT
  5
1113
330
10FC
100
AcDbEntity
  8
Defpoints
 62
     0
440
 16777216
100
AcDbPoint
 10
354.7217381721627
 20
160.849834
 30
0.0
  0
POINT
  5
1114
330
10FC
100
AcDbEntity
  8
Defpoints
 62
     0
440
 16777216
100
AcDbPoint
 10
354.7217381721627
 20
159.249834
 30
0.0
  0
POINT
  5
1115
330
10FC
100
AcDbEntity
  8
Defpoints
 62
     0
440
 16777216
100
AcDbPoint
 10
375.0982035221198
 20
159.249834
 30
0.0
  0
ENDBLK
  5
10FE
330
10FC
100
AcDbEntity
  8
0
100
AcDbBlockEnd
  0
BLOCK
  5
1119
330
1118
100
AcDbEntity
  8
0
100
AcDbBlockBegin
  2
*D29
 70
     1
 10
0.0
 20
0.0
 30
0.0
  3
*D29
  1

  0
LINE
  5
1127
330
1118
100
AcDbEntity
  8
0
 62
     0
440
 16777216
370
    -2
100
AcDbLine
 10
356.4617381721628
 20
155.249834
 30
0.0
 11
368.1990953148264
 21
155.249834
 31
0.0
  0
LINE
  5
1128
330
1118
100
AcDbEntity
  8
0
 62
     0
440
 16777216
370
    -2
100
AcDbLine
 10
356.5392164565206
 20
148.491026
 30
0.0
 11
368.1990953148264
 21
148.491026
 31
0.0
  0
LINE
  5
1129
330
1118
100
AcDbEntity
  8
0
 62
     0
440
 16777216
370
    -2
100
AcDbLine
 10
366.0990953148264
 20
158.749834
 30
0.0
 11
366.0990953148264
 21
162.249834
 31
0.0
  0
LINE
  5
112A
330
1118
100
AcDbEntity
  8
0
 62
     0
440
 16777216
370
    -2
100
AcDbLine
 10
366.0990953148264
 20
144.991026
 30
0.0
 11
366.0990953148264
 21
129.5829086739427
 31
0.0
  0
LINE
  5
112B
330
1118
100
AcDbEntity
  8
0
 62
     0
440
 16777216
370
    -2
100
AcDbLine
 10
366.0990953148264
 20
155.249834
 30
0.0
 11
366.0990953148264
 21
148.491026
 31
0.0
  0
SOLID
  5
112C
330
1118
100
AcDbEntity
  8
0
 62
     0
440
 16777216
100
AcDbTrace
 10
365.5157619814931
 20
158.749834
 30
0.0
 11
366.6824286481597
 21
158.749834
 31
0.0
 12
366.0990953148264
 22
155.249834
 32
0.0
 13
366.0990953148264
 23
155.249834
 33
0.0
  0
SOLID
  5
112D
330
1118
100
AcDbEntity
  8
0
 62
     0
440
 16777216
100
AcDbTrace
 10
365.5157619814931
 20
144.991026
 30
0.0
 11
366.6824286481597
 21
144.991026
 31
0.0
 12
366.0990953148264
 22
148.491026
 32
0.0
 13
366.0990953148264
 23
148.491026
 33
0.0
  0
MTEXT
  5
112E
330
1118
100
AcDbEntity
  8
0
 62
     0
440
 16777216
100
AcDbMText
 10
362.9120898578005
 20
135.5369673369712
 30
0.0
 40
3.5
 41
0.0
 46
0.0
 71
     5
 72
     1
  1
6.76
 11
0.0000000000000001
 21
1.0
 31
0.0
 73
     1
 44
1.0
  0
POINT
  5
112F
330
1118
100
AcDbEntity
  8
Defpoints
 62
     0
440
 16777216
100
AcDbPoint
 10
354.3617381721627
 20
155.249834
 30
0.0
  0
POINT
  5
1130
330
1118
100
AcDbEntity
  8
Defpoints
 62
     0
440
 16777216
100
AcDbPoint
 10
354.4392164565205
 20
148.491026
 30
0.0
  0
POINT
  5
1131
330
1118
100
AcDbEntity
  8
Defpoints
 62
     0
440
 16777216
100
AcDbPoint
 10
366.0990953148264
 20
148.491026
 30
0.0
  0
ENDBLK
  5
111A
330
1118
100
AcDbEntity
  8
0
100
AcDbBlockEnd
  0
BLOCK
  5
1135
330
1134
100
AcDbEntity
  8
0
100
AcDbBlockBegin
  2
*D30
 70
     1
 10
0.0
 20
0.0
 30
0.0
  3
*D30
  1

  0
LINE
  5
117C
330
1134
100
AcDbEntity
  8
0
 62
     0
440
 16777216
370
    -2
100
AcDbLine
 10
57.25404200000001
 20
352.3602665000001
 30
0.0
 11
57.25404200000001
 21
304.9235062234561
 31
0.0
  0
LINE
  5
117D
330
1134
100
AcDbEntity
  8
0
 62
     0
440
 16777216
370
    -2
100
AcDbLine
 10
757.2540419999998
 20
352.3602665000001
 30
0.0
 11
757.2540419999998
 21
304.9235062234561
 31
0.0
  0
LINE
  5
117E
330
1134
100
AcDbEntity
  8
0
 62
     0
440
 16777216
370
    -2
100
AcDbLine
 10
60.75404200000001
 20
307.0235062234561
 30
0.0
 11
753.7540419999998
 21
307.0235062234561
 31
0.0
  0
SOLID
  5
117F
330
1134
100
AcDbEntity
  8
0
 62
     0
440
 16777216
100
AcDbTrace
 10
60.75404200000001
 20
307.6068395567895
 30
0.0
 11
60.75404200000001
 21
306.4401728901228
 31
0.0
 12
57.25404200000001
 22
307.0235062234561
 32
0.0
 13
57.25404200000001
 23
307.0235062234561
 33
0.0
  0
SOLID
  5
1180
330
1134
100
AcDbEntity
  8
0
 62
     0
440
 16777216
100
AcDbTrace
 10
753.7540419999998
 20
307.6068395567895
 30
0.0
 11
753.7540419999998
 21
306.4401728901228
 31
0.0
 12
757.2540419999998
 22
307.0235062234561
 32
0.0
 13
757.2540419999998
 23
307.0235062234561
 33
0.0
  0
MTEXT
  5
1181
330
1134
100
AcDbEntity
  8
0
 62
     0
440
 16777216
100
AcDbMText
 10
407.2540419999999
 20
310.2105116804821
 30
0.0
 40
3.5
 41
0.0
 46
0.0
 71
     5
 72
     1
  1
700
 73
     1
 44
1.0
  0
POINT
  5
1182
330
1134
100
AcDbEntity
  8
Defpoints
 62
     0
440
 16777216
100
AcDbPoint
 10
57.25404200000001
 20
354.4602665000001
 30
0.0
  0
POINT
  5
1183
330
1134
100
AcDbEntity
  8
Defpoints
 62
     0
440
 16777216
100
AcDbPoint
 10
757.2540419999998
 20
354.4602665000001
 30
0.0
  0
POINT
  5
1184
330
1134
100
AcDbEntity
  8
Defpoints
 62
     0
440
 16777216
100
AcDbPoint
 10
757.2540419999998
 20
307.0235062234561
 30
0.0
  0
ENDBLK
  5
1136
330
1134
100
AcDbEntity
  8
0
100
AcDbBlockEnd
  0
BLOCK
  5
1188
330
1187
100
AcDbEntity
  8
0
100
AcDbBlockBegin
  2
*D31
 70
     1
 10
0.0
 20
0.0
 30
0.0
  3
*D31
  1

  0
LINE
  5
1194
330
1187
100
AcDbEntity
  8
0
 62
     0
440
 16777216
370
    -2
100
AcDbLine
 10
757.2540419999998
 20
374.1602665
 30
0.0
 11
757.2540419999998
 21
396.0395486624044
 31
0.0
  0
LINE
  5
1195
330
1187
100
AcDbEntity
  8
0
 62
     0
440
 16777216
370
    -2
100
AcDbLine
 10
57.25404200000001
 20
374.1602665
 30
0.0
 11
57.25404200000001
 21
396.0395486624044
 31
0.0
  0
LINE
  5
1196
330
1187
100
AcDbEntity
  8
0
 62
     0
440
 16777216
370
    -2
100
AcDbLine
 10
753.7540419999998
 20
393.9395486624044
 30
0.0
 11
60.75404200000001
 21
393.9395486624044
 31
0.0
  0
SOLID
  5
1197
330
1187
100
AcDbEntity
  8
0
 62
     0
440
 16777216
100
AcDbTrace
 10
753.7540419999998
 20
394.5228819957377
 30
0.0
 11
753.7540419999998
 21
393.3562153290711
 31
0.0
 12
757.2540419999998
 22
393.9395486624044
 32
0.0
 13
757.2540419999998
 23
393.9395486624044
 33
0.0
  0
SOLID
  5
1198
330
1187
100
AcDbEntity
  8
0
 62
     0
440
 16777216
100
AcDbTrace
 10
60.75404200000001
 20
394.5228819957377
 30
0.0
 11
60.75404200000001
 21
393.3562153290711
 31
0.0
 12
57.25404200000001
 22
393.9395486624044
 32
0.0
 13
57.25404200000001
 23
393.9395486624044
 33
0.0
  0
MTEXT
  5
1199
330
1187
100
AcDbEntity
  8
0
 62
     0
440
 16777216
100
AcDbMText
 10
407.2540419999999
 20
397.1265541194303
 30
0.0
 40
3.5
 41
0.0
 46
0.0
 71
     5
 72
     1
  1
700
 73
     1
 44
1.0
  0
POINT
  5
119A
330
1187
100
AcDbEntity
  8
Defpoints
 62
     0
440
 16777216
100
AcDbPoint
 10
757.2540419999998
 20
372.0602665
 30
0.0
  0
POINT
  5
119B
330
1187
100
AcDbEntity
  8
Defpoints
 62
     0
440
 16777216
100
AcDbPoint
 10
57.25404200000001
 20
372.0602665
 30
0.0
  0
POINT
  5
119C
330
1187
100
AcDbEntity
  8
Defpoints
 62
     0
440
 16777216
100
AcDbPoint
 10
57.25404200000001
 20
393.9395486624044
 30
0.0
  0
ENDBLK
  5
1189
330
1187
100
AcDbEntity
  8
0
100
AcDbBlockEnd
  0
ENDSEC
  0
SECTION
  2
ENTITIES
  0
HATCH
  5
4CE
330
70
100
AcDbEntity
  8
Hatching
100
AcDbHatch
 10
0.0
 20
0.0
 30
0.0
210
0.0
220
0.0
230
1.0
  2
ANSI31
 70
     0
 71
     0
 91
        6
 92
        0
 93
        4
 72
     1
 10
830.4116449097978
 20
229.7946935643149
 11
830.5054810361793
 21
237.3015836748539
 72
     1
 10
830.5054810361793
 20
237.3015836748539
 11
830.2055044709332
 21
237.3053333819197
 72
     1
 10
830.2055044709332
 20
237.3053333819197
 11
830.1116683445515
 21
229.7984432713804
 72
     1
 10
830.1116683445515
 20
229.7984432713804
 11
830.4116449097978
 21
229.7946935643149
 97
        0
 92
        0
 93
        7
 72
     1
 10
830.5304790832835
 20
239.3014274431622
 11
830.5742256657149
 21
242.8011540377014
 72
     1
 10
830.5742256657152
 20
242.8011540377014
 11
830.2742491004687
 21
242.804903744767
 72
     1
 10
830.2742491004686
 20
242.804903744767
 11
830.230502518037
 21
239.3051771502277
 72
     1
 10
830.230502518037
 20
239.3051771502277
 11
828.5465386978787
 21
238.2261656338859
 72
     1
 10
828.5465386978787
 20
238.2261656338862
 11
828.7083904253298
 21
237.9735710608624
 72
     1
 10
828.70839042533
 20
237.9735710608624
 11
830.3923542454883
 21
239.0525825772042
 72
     3
 10
830.230502518037
 20
239.3051771502279
 11
0.1618517274512533
 21
-0.2525945730237487
 40
1.0
 50
359.9999999999945
 51
416.6338400545276
 73
     1
 97
        0
 92
        0
 93
        4
 72
     1
 10
812.5618122803206
 20
229.7984432713764
 11
812.4652042320263
 21
237.5270871349057
 72
     1
 10
812.4652042320269
 20
237.5270871349057
 11
812.1651339094542
 21
237.5308380139379
 72
     1
 10
812.1651339094542
 20
237.5308380139379
 11
812.2618357150749
 21
229.794693564311
 72
     1
 10
812.2618357150749
 20
229.794693564311
 11
812.5618122803206
 21
229.7984432713765
 97
        0
 92
        0
 93
        4
 72
     1
 10
814.2831465563332
 20
228.1023257753902
 11
814.2868965563334
 21
227.8023257753902
 72
     1
 10
814.2868965563334
 20
227.8023257753902
 11
817.3367403124361
 21
227.8023257753902
 72
     1
 10
817.3367403124361
 20
227.8023257753902
 11
817.3367403124361
 21
228.1023257753902
 72
     1
 10
817.3367403124361
 20
228.1023257753902
 11
814.2831465563332
 21
228.1023257753902
 97
        0
 92
        0
 93
        4
 72
     1
 10
828.0865606314607
 20
227.8023257753902
 11
828.0903106314607
 21
228.1023257753902
 72
     1
 10
828.0903106314607
 20
228.1023257753902
 11
825.3367403124361
 21
228.1023257753902
 72
     1
 10
825.3367403124361
 20
228.1023257753902
 11
825.3367403124361
 21
227.8023257753902
 72
     1
 10
825.3367403124361
 20
227.8023257753902
 11
828.0865606314607
 21
227.8023257753902
 97
        0
 92
        0
 93
        7
 72
     3
 10
812.4401983718124
 20
239.5275559520554
 11
-0.2999765652460705
 21
-0.003749707065579
 40
1.0
 50
360.0
 51
416.6338400545456
 73
     1
 72
     1
 10
812.278346644361
 20
239.2749613790317
 11
813.9623104645192
 21
238.1959498626902
 72
     1
 10
813.9623104645192
 20
238.1959498626902
 11
814.1241621919705
 21
238.4485444357137
 72
     1
 10
814.1241621919705
 20
238.4485444357137
 11
812.4401983718124
 21
239.5275559520554
 72
     1
 10
812.4401983718124
 20
239.5275559520554
 11
812.3992315244034
 21
242.804903744767
 72
     1
 10
812.3992315244032
 20
242.804903744767
 11
812.0992549591573
 21
242.8011540377014
 72
     1
 10
812.0992549591573
 20
242.8011540377014
 11
812.1402218065661
 21
239.5238062449899
 97
        0
 75
     0
 76
     1
 52
90.0
 41
2.5
 77
     0
 78
     1
 53
135.0
 43
-94.51308756959345
 44
-141.5252385
 45
-5.61266007566822
 46
-5.61266007566822
 79
     0
 98
        1
 10
821.3367403124362
 20
244.0508366860122
1001
ACAD_MODELDOC_XFORM
1011
821.3367399304065
1021
229.4023264999999
1031
667.0999999999999
1013
0.4
1023
0.0
1033
0.0
1013
0.0
1023
0.4
1033
0.0
1013
0.0
1023
0.0
1033
0.4
  0
HATCH
  5
4D0
330
70
100
AcDbEntity
  8
Hatching
100
AcDbHatch
 10
0.0
 20
0.0
 30
0.0
210
0.0
220
0.0
230
1.0
  2
ANSI31
 70
     0
 71
     0
 91
        1
 92
        0
 93
       28
 72
     1
 10
814.826465048322
 20
255.2348277374954
 11
814.922630206791
 21
255.3515434241942
 72
     3
 10
814.5367403124367
 20
255.6694883713712
 11
0.3858898943540667
 21
-0.317944947177038
 40
1.0
 50
359.9999999999956
 51
399.4860175586676
 73
     1
 72
     1
 10
815.036740312437
 20
255.6694883713714
 11
815.036740312437
 21
256.2993475966345
 72
     3
 10
814.0367403124368
 20
256.2993475966342
 11
1.000000000000182
 21
0.0000000000002843
 40
1.0
 50
0.0
 51
89.99999999997424
 73
     1
 72
     1
 10
814.0367403124368
 20
257.2993475966344
 11
813.5367403124368
 21
257.2993475966341
 72
     1
 10
813.5367403124369
 20
257.2993475966341
 11
813.5367403124369
 21
258.7993475966342
 72
     1
 10
813.5367403124369
 20
258.7993475966342
 11
829.1367403124361
 21
258.7993475966342
 72
     1
 10
829.1367403124359
 20
258.7993475966342
 11
829.1367403124359
 21
257.2993475966342
 72
     1
 10
829.1367403124359
 20
257.2993475966341
 11
828.636740312436
 21
257.2993475966341
 72
     3
 10
828.636740312436
 20
256.2993475966345
 11
-0.0000000000000588
 21
1.000000000000058
 40
1.0
 50
0.0000000000005725
 51
89.99999999999358
 73
     1
 72
     1
 10
827.6367403124361
 20
256.2993475966345
 11
827.6367403124369
 21
255.6694883713714
 72
     3
 10
828.1367403124377
 20
255.6694883713717
 11
-0.5000000000010262
 21
-0.0000000000003863
 40
1.0
 50
0.0
 51
39.48601755858765
 73
     1
 72
     1
 10
827.7508504180826
 20
255.3515434241942
 11
827.8470155765507
 21
255.2348277374954
 72
     3
 10
828.2329054709062
 20
255.5527726846725
 11
-0.3858898943544278
 21
-0.3179449471760565
 40
1.0
 50
359.9999999999973
 51
540.0
 73
     1
 72
     1
 10
828.6187953652607
 20
255.8707176318485
 11
828.5352063758232
 21
255.9721696177634
 72
     3
 10
828.6895623335647
 20
256.0993475966342
 11
-0.1543559577417375
 21
-0.127177978870856
 40
1.0
 50
0.0000000000032352
 51
129.4860175586199
 73
     0
 72
     1
 10
828.6895623335647
 20
256.2993475966345
 11
829.9367403124362
 21
256.2993475966345
 72
     3
 10
829.9367403124362
 20
256.4993475966342
 11
0.0
 21
-0.2000000000000002
 40
1.0
 50
0.0000000000044528
 51
90.0
 73
     1
 72
     1
 10
830.1367403124363
 20
256.4993475966342
 11
830.1367403124352
 21
259.7993475966341
 72
     3
 10
829.636740312436
 20
259.7993475966341
 11
0.4999999999999915
 21
-0.000000000000009
 40
1.0
 50
360.0
 51
450.0000000000013
 73
     1
 72
     1
 10
829.636740312436
 20
260.2993475966342
 11
813.036740312437
 21
260.2993475966342
 72
     3
 10
813.036740312437
 20
259.7993475966341
 11
-0.0000000000000045
 21
0.5000000000000071
 40
1.0
 50
359.9999999999984
 51
449.9999999999993
 73
     1
 72
     1
 10
812.5367403124368
 20
259.7993475966341
 11
812.5367403124368
 21
256.4993475966342
 72
     3
 10
812.7367403124369
 20
256.4993475966342
 11
-0.200000000000028
 21
-0.0000000000000355
 40
1.0
 50
360.0
 51
449.9999999999911
 73
     1
 72
     1
 10
812.7367403124369
 20
256.2993475966342
 11
813.9839182913068
 21
256.2993475966342
 72
     3
 10
813.9839182913068
 20
256.0993475966342
 11
-0.0000000000000023
 21
0.2000000000000002
 40
1.0
 50
359.9999999999988
 51
489.4860175585856
 73
     0
 72
     1
 10
814.1382742490485
 20
255.9721696177637
 11
814.0546852596138
 21
255.8707176318495
 72
     3
 10
814.4405751539677
 20
255.5527726846725
 11
-0.3858898943540157
 21
0.3179449471770912
 40
1.0
 50
0.0000000000016738
 51
179.9999999999999
 73
     1
 97
        0
 75
     0
 76
     1
 52
180.0
 41
2.5
 77
     0
 78
     1
 53
225.0
 43
-94.51308756959345
 44
-141.5252385
 45
5.612660075668217
 46
-5.61266007566822
 79
     0
 98
        1
 10
821.3367403124362
 20
244.0508366860122
1001
ACAD_MODELDOC_XFORM
1011
821.3367399304065
1021
229.4023264999999
1031
667.0999999999999
1013
0.4
1023
0.0
1033
0.0
1013
0.0
1023
0.4
1033
0.0
1013
0.0
1023
0.0
1033
0.4
  0
HATCH
  5
4D1
330
70
100
AcDbEntity
  8
Hatching
100
AcDbHatch
 10
0.0
 20
0.0
 30
0.0
210
0.0
220
0.0
230
1.0
  2
ANSI31
 70
     0
 71
     0
 91
        1
 92
        0
 93
       65
 72
     1
 10
826.0367403124362
 20
232.4023257753902
 11
821.6367403124364
 21
232.4023257753902
 72
     1
 10
821.6367403124364
 20
232.4023257753902
 11
821.3367403124363
 21
232.1023257753902
 72
     1
 10
821.3367403124363
 20
232.1023257753902
 11
821.0367403124363
 21
232.4023257753902
 72
     1
 10
821.0367403124363
 20
232.4023257753902
 11
816.6367403124365
 21
232.4023257753902
 72
     1
 10
816.6367403124365
 20
232.4023257753902
 11
816.3367403124365
 21
232.1023257753902
 72
     1
 10
816.3367403124365
 20
232.1023257753902
 11
816.0367403124364
 21
232.4023257753902
 72
     1
 10
816.0367403124364
 20
232.4023257753902
 11
813.7367403124363
 21
232.4023257753902
 72
     1
 10
813.7367403124363
 20
232.4023257753902
 11
813.7367403124363
 21
243.3130428252195
 72
     1
 10
813.7367403124363
 20
243.3130428252195
 11
814.2367403124362
 21
243.3130428252195
 72
     1
 10
814.2367403124362
 20
243.3130428252195
 11
814.2367403124362
 21
243.4887787565075
 72
     3
 10
813.9367403124367
 20
243.4887787565079
 11
0.2999999999994707
 21
-0.0000000000003288
 40
1.0
 50
0.0
 51
45.00000000008525
 73
     1
 72
     1
 10
814.1488723467924
 20
243.7009107908635
 11
813.7367403124363
 21
244.1130428252195
 72
     1
 10
813.7367403124363
 20
244.1130428252195
 11
813.7367403124363
 21
245.619898124864
 72
     3
 10
814.2367403124362
 20
245.619898124864
 11
-0.4999999999999483
 21
0.0
 40
1.0
 50
0.0
 51
39.48601755867691
 73
     0
 72
     1
 10
813.8508504180823
 20
245.937843072041
 11
814.0139182913078
 21
246.1357586071989
 72
     3
 10
813.9367403124367
 20
246.1993475966345
 11
0.0771779788707573
 21
-0.0635889894354057
 40
1.0
 50
359.9999999999853
 51
489.4860175586848
 73
     1
 72
     1
 10
813.9367403124367
 20
246.2993475966342
 11
812.7367403124369
 21
246.2993475966345
 72
     3
 10
812.7367403124369
 20
246.0993475966342
 11
-0.000000000000121
 21
0.2000000000001223
 40
1.0
 50
359.9999999999994
 51
449.9999999999157
 73
     1
 72
     1
 10
812.5367403124368
 20
246.0993475966345
 11
812.5367403124368
 21
244.4993475966342
 72
     1
 10
812.5367403124368
 20
244.4993475966345
 11
813.036740312437
 21
244.4993475966345
 72
     1
 10
813.036740312437
 20
244.4993475966345
 11
813.0367403124363
 21
243.2993475966341
 72
     1
 10
813.0367403124363
 20
243.2993475966341
 11
812.5367403124364
 21
243.2993475966341
 72
     1
 10
812.5367403124363
 20
243.2993475966341
 11
812.5367403124363
 21
240.2669383134342
 72
     1
 10
812.5367403124363
 20
240.2669383134342
 11
813.0367403124362
 21
240.2669383134342
 72
     1
 10
813.0367403124363
 20
240.2669383134342
 11
813.0367403124363
 21
237.2669383134342
 72
     1
 10
813.0367403124363
 20
237.2669383134342
 11
812.5367403124364
 21
237.2669383134342
 72
     1
 10
812.5367403124363
 20
237.2669383134342
 11
812.5367403124364
 21
229.6023257753902
 72
     3
 10
812.7367403124365
 20
229.6023257753902
 11
-0.2000000000000002
 21
0.0000000000000038
 40
1.0
 50
359.9999999999998
 51
450.0000000000007
 73
     1
 72
     1
 10
812.7367403124365
 20
229.4023257753901
 11
814.2367403124362
 21
229.4023257753901
 72
     3
 10
814.2367403124362
 20
229.7023257753902
 11
-0.0000000000000033
 21
-0.299999999999997
 40
1.0
 50
0.0000000000023324
 51
90.00000000000149
 73
     1
 72
     1
 10
814.5367403124364
 20
229.7023257753902
 11
814.5367403124364
 21
230.1023257753902
 72
     3
 10
814.2367403124362
 20
230.1023257753902
 11
0.3000000000000003
 21
0.0000000000000003
 40
1.0
 50
360.0
 51
450.0
 73
     1
 72
     1
 10
814.2367403124362
 20
230.4023257753902
 11
813.5367403124364
 21
230.4023257753902
 72
     1
 10
813.5367403124364
 20
230.4023257753902
 11
813.5367403124364
 21
231.4023257753902
 72
     1
 10
813.5367403124364
 20
231.4023257753902
 11
829.1367403124365
 21
231.4023257753902
 72
     1
 10
829.1367403124365
 20
231.4023257753902
 11
829.1367403124365
 21
230.4023257753902
 72
     1
 10
829.1367403124365
 20
230.4023257753902
 11
828.4367403124363
 21
230.4023257753902
 72
     3
 10
828.4367403124361
 20
230.1023257753902
 11
-0.000000000000001
 21
0.3000000000000015
 40
1.0
 50
0.0000000000023324
 51
89.99999999999895
 73
     1
 72
     1
 10
828.1367403124361
 20
230.1023257753902
 11
828.1367403124363
 21
229.7023257753902
 72
     3
 10
828.4367403124363
 20
229.7023257753902
 11
-0.2999999999999993
 21
0.0000000000000008
 40
1.0
 50
0.0000000000001657
 51
89.99999999999996
 73
     1
 72
     1
 10
828.4367403124363
 20
229.4023257753901
 11
829.9367403124362
 21
229.4023257753901
 72
     3
 10
829.9367403124364
 20
229.6023257753902
 11
-0.0000000000000055
 21
-0.1999999999999965
 40
1.0
 50
0.0000000000028625
 51
89.99999999999905
 73
     1
 72
     1
 10
830.1367403124363
 20
229.6023257753902
 11
830.136740312437
 21
237.2669383134341
 72
     1
 10
830.1367403124368
 20
237.2669383134342
 11
829.6367403124367
 21
237.2669383134342
 72
     1
 10
829.6367403124367
 20
237.2669383134342
 11
829.6367403124367
 21
240.2669383134342
 72
     1
 10
829.6367403124367
 20
240.2669383134342
 11
830.1367403124368
 21
240.2669383134342
 72
     1
 10
830.1367403124368
 20
240.2669383134342
 11
830.1367403124363
 21
243.2993475966342
 72
     1
 10
830.1367403124363
 20
243.2993475966341
 11
829.6367403124364
 21
243.2993475966341
 72
     1
 10
829.6367403124364
 20
243.2993475966341
 11
829.6367403124364
 21
244.4993475966345
 72
     1
 10
829.6367403124364
 20
244.4993475966345
 11
830.1367403124361
 21
244.4993475966345
 72
     1
 10
830.1367403124363
 20
244.4993475966345
 11
830.1367403124363
 21
246.0993475966345
 72
     3
 10
829.9367403124357
 20
246.0993475966342
 11
0.2000000000001767
 21
0.0000000000002775
 40
1.0
 50
0.0
 51
89.99999999988899
 73
     1
 72
     1
 10
829.936740312436
 20
246.2993475966345
 11
828.7367403124362
 21
246.2993475966345
 72
     3
 10
828.736740312436
 20
246.1993475966341
 11
0.0000000000001733
 21
0.0999999999998293
 40
1.0
 50
359.9999999999974
 51
489.4860175587125
 73
     1
 72
     1
 10
828.6595623335657
 20
246.135758607199
 11
828.8226302067904
 21
245.937843072041
 72
     3
 10
828.4367403124361
 20
245.619898124864
 11
0.3858898943542645
 21
0.3179449471770113
 40
1.0
 50
359.9999999999976
 51
399.4860175586434
 73
     0
 72
     1
 10
828.9367403124366
 20
245.619898124864
 11
828.9367403124366
 21
244.1130428252195
 72
     1
 10
828.9367403124366
 20
244.1130428252195
 11
828.5246082780808
 21
243.7009107908632
 72
     3
 10
828.7367403124363
 20
243.4887787565075
 11
-0.212132034356043
 21
0.2121320343559808
 40
1.0
 50
0.0000000000067521
 51
44.99999999999074
 73
     1
 72
     1
 10
828.4367403124363
 20
243.4887787565075
 11
828.4367403124361
 21
243.3130428252195
 72
     1
 10
828.4367403124361
 20
243.3130428252195
 11
828.9367403124364
 21
243.3130428252195
 72
     1
 10
828.9367403124366
 20
243.3130428252195
 11
828.9367403124368
 21
232.4023257753903
 72
     1
 10
828.9367403124368
 20
232.4023257753902
 11
826.6367403124364
 21
232.4023257753902
 72
     1
 10
826.6367403124364
 20
232.4023257753902
 11
826.3367403124364
 21
232.1023257753902
 72
     1
 10
826.3367403124364
 20
232.1023257753902
 11
826.0367403124362
 21
232.4023257753902
 97
        0
 75
     0
 76
     1
 52
105.0
 41
2.5
 77
     0
 78
     1
 53
150.0
 43
-94.51308756959345
 44
-141.5252385
 45
-3.96875
 46
-6.874076642538979
 79
     0
 98
        1
 10
821.3367403124362
 20
244.0508366860122
1001
ACAD_MODELDOC_XFORM
1011
821.3367399304065
1021
229.4023264999999
1031
667.0999999999999
1013
0.4
1023
0.0
1033
0.0
1013
0.0
1023
0.4
1033
0.0
1013
0.0
1023
0.0
1033
0.4
  0
LINE
  5
75D
330
70
100
AcDbEntity
  8
Visible
100
AcDbLine
 10
39.31173700000001
 20
249.5023265
 30
0.0
 11
39.31173700000001
 21
229.3023265
 31
0.0
210
-1.0
220
0.0000000000000002
230
0.0
  0
LINE
  5
75E
330
70
100
AcDbEntity
  8
Visible
100
AcDbLine
 10
39.31173700000001
 20
229.3023265
 30
0.0
 11
39.31173700000001
 21
229.1023265
 31
0.0
210
-1.0
220
0.0000000000000002
230
0.0
  0
LINE
  5
75F
330
70
100
AcDbEntity
  8
Visible
100
AcDbLine
 10
39.31173700000001
 20
250.0023265000001
 30
0.0
 11
39.31173700000001
 21
249.5023265
 31
0.0
210
-1.0
220
0.0000000000000002
230
0.0
  0
LINE
  5
760
330
70
100
AcDbEntity
  8
Visible
100
AcDbLine
 10
54.31173700000001
 20
229.1023265
 30
0.0
 11
54.31173700000001
 21
231.1023265
 31
0.0
210
-1.0
220
0.0000000000000002
230
0.0
  0
LINE
  5
761
330
70
100
AcDbEntity
  8
Visible
100
AcDbLine
 10
39.31173700000001
 20
231.1023265
 30
0.0
 11
54.31173700000001
 21
231.1023265
 31
0.0
210
-1.0
220
0.0000000000000002
230
0.0
  0
ARC
  5
762
330
70
100
AcDbEntity
  8
Visible
100
AcDbCircle
 10
-53.31173699999999
 20
240.1023265
 30
0.0000000000000284
 40
1.000000000000004
210
0.0
220
-0.0000000000000002
230
-1.0
100
AcDbArc
 50
90.0
 51
180.0
  0
LINE
  5
763
330
70
100
AcDbEntity
  8
Visible
100
AcDbLine
 10
39.31173700000001
 20
241.1023265
 30
0.0
 11
53.31173699999999
 21
241.1023265
 31
0.0
210
-1.0
220
0.0000000000000002
230
0.0
  0
LINE
  5
764
330
70
100
AcDbEntity
  8
Visible
100
AcDbLine
 10
39.31173700000001
 20
232.1023265
 30
0.0
 11
54.31173700000001
 21
232.1023265
 31
0.0
210
-1.0
220
0.0000000000000002
230
0.0
  0
LINE
  5
765
330
70
100
AcDbEntity
  8
Visible
100
AcDbLine
 10
54.31173700000001
 20
232.1023265
 30
0.0
 11
54.31173700000001
 21
240.1023265
 31
0.0
210
-1.0
220
0.0000000000000002
230
0.0
  0
LINE
  5
766
330
70
100
AcDbEntity
  8
Visible
100
AcDbLine
 10
39.31173700000001
 20
229.1023265
 30
0.0
 11
54.31173700000001
 21
229.1023265
 31
0.0
210
-1.0
220
0.0000000000000002
230
0.0
  0
LINE
  5
767
330
70
100
AcDbEntity
  8
Visible
100
AcDbLine
 10
38.11173700000001
 20
229.1023265
 30
0.0
 11
39.31173700000001
 21
229.1023265
 31
0.0
210
-1.0
220
0.0000000000000002
230
0.0
  0
LINE
  5
768
330
70
100
AcDbEntity
  8
Visible
100
AcDbLine
 10
38.11173700000001
 20
229.1023265
 30
0.0
 11
38.11173700000001
 21
229.3023265
 31
0.0
210
-1.0
220
0.0000000000000002
230
0.0
  0
LINE
  5
769
330
70
100
AcDbEntity
  8
Visible
100
AcDbLine
 10
38.11173700000001
 20
249.5023265
 30
0.0
 11
38.11173700000001
 21
250.0023265000001
 31
0.0
210
-1.0
220
0.0000000000000002
230
0.0
  0
LINE
  5
76A
330
70
100
AcDbEntity
  8
Visible
100
AcDbLine
 10
39.31173700000001
 20
250.0023265000001
 30
0.0
 11
38.11173700000001
 21
250.0023265000001
 31
0.0
210
-1.0
220
0.0000000000000002
230
0.0
  0
LINE
  5
76B
330
70
100
AcDbEntity
  8
Visible
100
AcDbLine
 10
38.11173700000001
 20
249.5023265
 30
0.0
 11
38.11173700000001
 21
229.3023265
 31
0.0
210
-1.0
220
0.0000000000000002
230
0.0
  0
LINE
  5
76C
330
70
100
AcDbEntity
  8
Visible
100
AcDbLine
 10
760.254042
 20
229.1023265
 30
0.0
 11
760.254042
 21
231.1023265
 31
0.0
210
-1.0
220
0.0000000000000002
230
0.0
  0
LINE
  5
76D
330
70
100
AcDbEntity
  8
Visible
100
AcDbLine
 10
760.254042
 20
231.1023265
 30
0.0
 11
775.254042
 21
231.1023265
 31
0.0
210
-1.0
220
0.0000000000000002
230
0.0
  0
ARC
  5
76E
330
70
100
AcDbEntity
  8
Visible
100
AcDbCircle
 10
-761.2540419999999
 20
240.1023265
 30
0.0000000000000284
 40
1.000000000000005
210
0.0
220
-0.0000000000000002
230
-1.0
100
AcDbArc
 50
0.0
 51
90.0
  0
LINE
  5
76F
330
70
100
AcDbEntity
  8
Visible
100
AcDbLine
 10
761.2540419999999
 20
241.1023265
 30
0.0
 11
775.254042
 21
241.1023265
 31
0.0
210
-1.0
220
0.0000000000000002
230
0.0
  0
LINE
  5
770
330
70
100
AcDbEntity
  8
Visible
100
AcDbLine
 10
775.254042
 20
229.1023265
 30
0.0
 11
775.254042
 21
229.3023265
 31
0.0
210
-1.0
220
0.0000000000000002
230
0.0
  0
LINE
  5
771
330
70
100
AcDbEntity
  8
Visible
100
AcDbLine
 10
775.254042
 20
229.3023265
 30
0.0
 11
775.254042
 21
249.5023265
 31
0.0
210
-1.0
220
0.0000000000000002
230
0.0
  0
LINE
  5
772
330
70
100
AcDbEntity
  8
Visible
100
AcDbLine
 10
775.254042
 20
249.5023265
 30
0.0
 11
775.254042
 21
250.0023265000001
 31
0.0
210
-1.0
220
0.0000000000000002
230
0.0
  0
LINE
  5
773
330
70
100
AcDbEntity
  8
Visible
100
AcDbLine
 10
760.254042
 20
232.1023265
 30
0.0
 11
760.254042
 21
240.1023265
 31
0.0
210
-1.0
220
0.0000000000000002
230
0.0
  0
LINE
  5
774
330
70
100
AcDbEntity
  8
Visible
100
AcDbLine
 10
775.254042
 20
229.1023265
 30
0.0
 11
776.4540419999998
 21
229.1023265
 31
0.0
210
-1.0
220
0.0000000000000002
230
0.0
  0
LINE
  5
775
330
70
100
AcDbEntity
  8
Visible
100
AcDbLine
 10
775.254042
 20
229.1023265
 30
0.0
 11
760.254042
 21
229.1023265
 31
0.0
210
-1.0
220
0.0000000000000002
230
0.0
  0
LINE
  5
776
330
70
100
AcDbEntity
  8
Visible
100
AcDbLine
 10
760.254042
 20
232.1023265
 30
0.0
 11
775.254042
 21
232.1023265
 31
0.0
210
-1.0
220
0.0000000000000002
230
0.0
  0
LINE
  5
777
330
70
100
AcDbEntity
  8
Visible
100
AcDbLine
 10
776.4540419999998
 20
229.3023265
 30
0.0
 11
776.4540419999998
 21
229.1023265
 31
0.0
210
-1.0
220
0.0000000000000002
230
0.0
  0
LINE
  5
778
330
70
100
AcDbEntity
  8
Visible
100
AcDbLine
 10
776.4540419999998
 20
250.0023265000001
 30
0.0
 11
776.4540419999998
 21
249.5023265
 31
0.0
210
-1.0
220
0.0000000000000002
230
0.0
  0
LINE
  5
779
330
70
100
AcDbEntity
  8
Visible
100
AcDbLine
 10
776.4540419999998
 20
229.3023265
 30
0.0
 11
776.4540419999998
 21
249.5023265
 31
0.0
210
-1.0
220
0.0000000000000002
230
0.0
  0
LINE
  5
77A
330
70
100
AcDbEntity
  8
Visible
100
AcDbLine
 10
776.4540419999998
 20
250.0023265000001
 30
0.0
 11
775.254042
 21
250.0023265000001
 31
0.0
210
-1.0
220
0.0000000000000002
230
0.0
  0
ELLIPSE
  5
77B
330
70
100
AcDbEntity
  8
Visible
100
AcDbEllipse
 10
154.254042
 20
239.501389
 30
0.0
 11
-3.000000000000004
 21
0.00000000726507
 31
0.0
210
0.0
220
-0.0000000000000002
230
-1.0
 40
0.9999218841543678
 41
1.570796324373407
 42
3.141592651167913
  0
LINE
  5
77C
330
70
100
AcDbEntity
  8
Visible
100
AcDbLine
 10
157.254042
 20
239.501389
 30
0.0
 11
157.254042
 21
239.505139
 31
0.0
210
-1.0
220
0.0000000000000002
230
0.0
  0
ELLIPSE
  5
77D
330
70
100
AcDbEntity
  8
Visible
100
AcDbEllipse
 10
154.254042
 20
239.505139
 30
0.0
 11
-3.000000000000004
 21
0.00000000726507
 31
0.0
210
0.0
220
0.0000000000000002
230
1.0
 40
0.999921884154368
 41
3.141592656011671
 42
4.712388982806177
  0
LINE
  5
77E
330
70
100
AcDbEntity
  8
Visible
100
AcDbLine
 10
130.254042
 20
242.501154
 30
0.0
 11
154.254042
 21
242.501154
 31
0.0
210
-1.0
220
0.0000000000000002
230
0.0
  0
ELLIPSE
  5
77F
330
70
100
AcDbEntity
  8
Visible
100
AcDbEllipse
 10
130.254042
 20
239.501389
 30
0.0
 11
3.000000000000039
 21
0.0000000074912745
 31
0.0
210
0.0
220
-0.0000000000000002
230
-1.0
 40
0.999921884154356
 41
3.141592656087078
 42
4.712388982881574
  0
LINE
  5
780
330
70
100
AcDbEntity
  8
Visible
100
AcDbLine
 10
127.254042
 20
239.501389
 30
0.0
 11
127.254042
 21
227.7948265
 31
0.0
210
-1.0
220
0.0000000000000002
230
0.0
  0
LINE
  5
781
330
70
100
AcDbEntity
  8
Visible
100
AcDbLine
 10
137.254042
 20
227.7948265
 30
0.0
 11
137.254042
 21
229.494694
 31
0.0
210
-1.0
220
0.0000000000000002
230
0.0
  0
LINE
  5
782
330
70
100
AcDbEntity
  8
Visible
100
AcDbLine
 10
137.254042
 20
229.494694
 30
0.0
 11
147.254042
 21
229.494694
 31
0.0
210
-1.0
220
0.0000000000000002
230
0.0
  0
LINE
  5
783
330
70
100
AcDbEntity
  8
Visible
100
AcDbLine
 10
147.254042
 20
229.494694
 30
0.0
 11
147.254042
 21
227.7948265
 31
0.0
210
-1.0
220
0.0000000000000002
230
0.0
  0
LINE
  5
784
330
70
100
AcDbEntity
  8
Visible
100
AcDbLine
 10
157.254042
 20
239.501389
 30
0.0
 11
157.254042
 21
227.7948265
 31
0.0
210
-1.0
220
0.0000000000000002
230
0.0
  0
LINE
  5
785
330
70
100
AcDbEntity
  8
Visible
100
AcDbLine
 10
137.254042
 20
237.0015840000001
 30
0.0
 11
137.254042
 21
239.0014265
 31
0.0
210
-1.0
220
0.0000000000000002
230
0.0
  0
LINE
  5
786
330
70
100
AcDbEntity
  8
Visible
100
AcDbLine
 10
147.254042
 20
239.0014265
 30
0.0
 11
147.254042
 21
237.0015840000001
 31
0.0
210
-1.0
220
0.0000000000000002
230
0.0
  0
LINE
  5
787
330
70
100
AcDbEntity
  8
Visible
100
AcDbLine
 10
147.254042
 20
237.0015840000001
 30
0.0
 11
137.254042
 21
237.0015840000001
 31
0.0
210
-1.0
220
0.0000000000000002
230
0.0
  0
LINE
  5
788
330
70
100
AcDbEntity
  8
Visible
100
AcDbLine
 10
130.254042
 20
242.504904
 30
0.0
 11
154.254042
 21
242.504904
 31
0.0
210
-1.0
220
0.0000000000000002
230
0.0
  0
ELLIPSE
  5
789
330
70
100
AcDbEntity
  8
Visible
100
AcDbEllipse
 10
130.254042
 20
239.505139
 30
0.0
 11
2.99999999999997
 21
0.0000000073560573
 31
0.0
210
0.0
220
0.0000000000000002
230
1.0
 40
0.99992188415438
 41
1.570796324343068
 42
3.141592651137582
  0
LINE
  5
78A
330
70
100
AcDbEntity
  8
Visible
100
AcDbLine
 10
127.254042
 20
239.505139
 30
0.0
 11
127.254042
 21
239.501389
 31
0.0
210
-1.0
220
0.0000000000000002
230
0.0
  0
LINE
  5
78B
330
70
100
AcDbEntity
  8
Visible
100
AcDbLine
 10
137.254042
 20
227.8023265
 30
0.0
 11
147.254042
 21
227.8023265
 31
0.0
210
-1.0
220
0.0000000000000002
230
0.0
  0
LINE
  5
78C
330
70
100
AcDbEntity
  8
Visible
100
AcDbLine
 10
147.254042
 20
227.5023265000001
 30
0.0
 11
137.254042
 21
227.5023265000001
 31
0.0
210
-1.0
220
0.0000000000000002
230
0.0
  0
LINE
  5
78D
330
70
100
AcDbEntity
  8
Visible
100
AcDbLine
 10
147.254042
 20
227.5023265000001
 30
0.0
 11
147.254042
 21
227.7948265
 31
0.0
210
-1.0
220
0.0000000000000002
230
0.0
  0
LINE
  5
78E
330
70
100
AcDbEntity
  8
Visible
100
AcDbLine
 10
147.254042
 20
227.5023265000001
 30
0.0
 11
157.254042
 21
227.5023265000001
 31
0.0
210
-1.0
220
0.0000000000000002
230
0.0
  0
LINE
  5
78F
330
70
100
AcDbEntity
  8
Visible
100
AcDbLine
 10
157.254042
 20
227.5023265000001
 30
0.0
 11
157.254042
 21
227.7948265
 31
0.0
210
-1.0
220
0.0000000000000002
230
0.0
  0
LINE
  5
790
330
70
100
AcDbEntity
  8
Visible
100
AcDbLine
 10
137.254042
 20
227.7948265
 30
0.0
 11
137.254042
 21
227.5023265000001
 31
0.0
210
-1.0
220
0.0000000000000002
230
0.0
  0
LINE
  5
791
330
70
100
AcDbEntity
  8
Visible
100
AcDbLine
 10
127.254042
 20
227.7948265
 30
0.0
 11
127.254042
 21
227.5023265000001
 31
0.0
210
-1.0
220
0.0000000000000002
230
0.0
  0
LINE
  5
792
330
70
100
AcDbEntity
  8
Visible
100
AcDbLine
 10
127.254042
 20
227.5023265000001
 30
0.0
 11
137.254042
 21
227.5023265000001
 31
0.0
210
-1.0
220
0.0000000000000002
230
0.0
  0
LINE
  5
793
330
70
100
AcDbEntity
  8
Visible
100
AcDbLine
 10
137.254042
 20
237.0053340000001
 30
0.0
 11
147.254042
 21
237.0053340000001
 31
0.0
210
-1.0
220
0.0000000000000002
230
0.0
  0
ELLIPSE
  5
794
330
70
100
AcDbEntity
  8
Visible
100
AcDbEllipse
 10
684.2540419999998
 20
239.501389
 30
0.0
 11
-2.99999999999997
 21
0.0000000076757763
 31
0.0
210
0.0
220
-0.0000000000000002
230
-1.0
 40
0.99992188415438
 41
1.570796324236504
 42
3.141592651031001
  0
LINE
  5
795
330
70
100
AcDbEntity
  8
Visible
100
AcDbLine
 10
687.2540419999998
 20
239.501389
 30
0.0
 11
687.2540419999998
 21
239.505139
 31
0.0
210
-1.0
220
0.0000000000000002
230
0.0
  0
ELLIPSE
  5
796
330
70
100
AcDbEntity
  8
Visible
100
AcDbEllipse
 10
684.2540419999998
 20
239.505139
 30
0.0
 11
-3.000000000000111
 21
0.0000000073004545
 31
0.0
210
0.0
220
0.0000000000000002
230
1.0
 40
0.9999218841543322
 41
3.141592656023466
 42
4.712388982817983
  0
LINE
  5
797
330
70
100
AcDbEntity
  8
Visible
100
AcDbLine
 10
660.254042
 20
242.501154
 30
0.0
 11
684.2540419999998
 21
242.501154
 31
0.0
210
-1.0
220
0.0000000000000002
230
0.0
  0
ELLIPSE
  5
798
330
70
100
AcDbEntity
  8
Visible
100
AcDbEllipse
 10
660.254042
 20
239.501389
 30
0.0
 11
3.000000000000111
 21
0.0000000073004545
 31
0.0
210
0.0
220
-0.0000000000000002
230
-1.0
 40
0.9999218841543322
 41
3.141592656023466
 42
4.712388982817983
  0
LINE
  5
799
330
70
100
AcDbEntity
  8
Visible
100
AcDbLine
 10
657.2540419999998
 20
239.501389
 30
0.0
 11
657.2540419999998
 21
227.7948265
 31
0.0
210
-1.0
220
0.0000000000000002
230
0.0
  0
LINE
  5
79A
330
70
100
AcDbEntity
  8
Visible
100
AcDbLine
 10
667.2540419999998
 20
227.7948265
 30
0.0
 11
667.2540419999998
 21
229.494694
 31
0.0
210
-1.0
220
0.0000000000000002
230
0.0
  0
LINE
  5
79B
330
70
100
AcDbEntity
  8
Visible
100
AcDbLine
 10
667.2540419999998
 20
229.494694
 30
0.0
 11
677.2540419999998
 21
229.494694
 31
0.0
210
-1.0
220
0.0000000000000002
230
0.0
  0
LINE
  5
79C
330
70
100
AcDbEntity
  8
Visible
100
AcDbLine
 10
677.2540419999998
 20
229.494694
 30
0.0
 11
677.2540419999998
 21
227.7948265
 31
0.0
210
-1.0
220
0.0000000000000002
230
0.0
  0
LINE
  5
79D
330
70
100
AcDbEntity
  8
Visible
100
AcDbLine
 10
687.2540419999998
 20
239.501389
 30
0.0
 11
687.2540419999998
 21
227.7948265
 31
0.0
210
-1.0
220
0.0000000000000002
230
0.0
  0
LINE
  5
79E
330
70
100
AcDbEntity
  8
Visible
100
AcDbLine
 10
667.2540419999998
 20
237.0015840000001
 30
0.0
 11
667.2540419999998
 21
239.0014265
 31
0.0
210
-1.0
220
0.0000000000000002
230
0.0
  0
LINE
  5
79F
330
70
100
AcDbEntity
  8
Visible
100
AcDbLine
 10
677.2540419999998
 20
239.0014265
 30
0.0
 11
677.2540419999998
 21
237.0015840000001
 31
0.0
210
-1.0
220
0.0000000000000002
230
0.0
  0
LINE
  5
7A0
330
70
100
AcDbEntity
  8
Visible
100
AcDbLine
 10
677.2540419999998
 20
237.0015840000001
 30
0.0
 11
667.2540419999998
 21
237.0015840000001
 31
0.0
210
-1.0
220
0.0000000000000002
230
0.0
  0
LINE
  5
7A1
330
70
100
AcDbEntity
  8
Visible
100
AcDbLine
 10
660.254042
 20
242.504904
 30
0.0
 11
684.2540419999998
 21
242.504904
 31
0.0
210
-1.0
220
0.0000000000000002
230
0.0
  0
ELLIPSE
  5
7A2
330
70
100
AcDbEntity
  8
Visible
100
AcDbEllipse
 10
660.254042
 20
239.505139
 30
0.0
 11
2.99999999999997
 21
0.000000006390583
 31
0.0
210
0.0
220
0.0000000000000002
230
1.0
 40
0.99992188415438
 41
1.570796324664868
 42
3.141592651459431
  0
LINE
  5
7A3
330
70
100
AcDbEntity
  8
Visible
100
AcDbLine
 10
657.2540419999998
 20
239.505139
 30
0.0
 11
657.2540419999998
 21
239.501389
 31
0.0
210
-1.0
220
0.0000000000000002
230
0.0
  0
LINE
  5
7A4
330
70
100
AcDbEntity
  8
Visible
100
AcDbLine
 10
667.2540419999998
 20
227.8023265
 30
0.0
 11
677.2540419999998
 21
227.8023265
 31
0.0
210
-1.0
220
0.0000000000000002
230
0.0
  0
LINE
  5
7A5
330
70
100
AcDbEntity
  8
Visible
100
AcDbLine
 10
677.2540419999998
 20
227.5023265000001
 30
0.0
 11
667.2540419999998
 21
227.5023265000001
 31
0.0
210
-1.0
220
0.0000000000000002
230
0.0
  0
LINE
  5
7A6
330
70
100
AcDbEntity
  8
Visible
100
AcDbLine
 10
677.2540419999998
 20
227.5023265000001
 30
0.0
 11
677.2540419999998
 21
227.7948265
 31
0.0
210
-1.0
220
0.0000000000000002
230
0.0
  0
LINE
  5
7A7
330
70
100
AcDbEntity
  8
Visible
100
AcDbLine
 10
677.2540419999998
 20
227.5023265000001
 30
0.0
 11
687.2540419999998
 21
227.5023265000001
 31
0.0
210
-1.0
220
0.0000000000000002
230
0.0
  0
LINE
  5
7A8
330
70
100
AcDbEntity
  8
Visible
100
AcDbLine
 10
687.2540419999998
 20
227.5023265000001
 30
0.0
 11
687.2540419999998
 21
227.7948265
 31
0.0
210
-1.0
220
0.0000000000000002
230
0.0
  0
LINE
  5
7A9
330
70
100
AcDbEntity
  8
Visible
100
AcDbLine
 10
667.2540419999998
 20
227.7948265
 30
0.0
 11
667.2540419999998
 21
227.5023265000001
 31
0.0
210
-1.0
220
0.0000000000000002
230
0.0
  0
LINE
  5
7AA
330
70
100
AcDbEntity
  8
Visible
100
AcDbLine
 10
657.2540419999998
 20
227.7948265
 30
0.0
 11
657.2540419999998
 21
227.5023265000001
 31
0.0
210
-1.0
220
0.0000000000000002
230
0.0
  0
LINE
  5
7AB
330
70
100
AcDbEntity
  8
Visible
100
AcDbLine
 10
657.2540419999998
 20
227.5023265000001
 30
0.0
 11
667.2540419999998
 21
227.5023265000001
 31
0.0
210
-1.0
220
0.0000000000000002
230
0.0
  0
LINE
  5
7AC
330
70
100
AcDbEntity
  8
Visible
100
AcDbLine
 10
667.2540419999998
 20
237.0053340000001
 30
0.0
 11
677.2540419999998
 21
237.0053340000001
 31
0.0
210
-1.0
220
0.0000000000000002
230
0.0
  0
ELLIPSE
  5
7AD
330
70
100
AcDbEntity
  8
Visible
100
AcDbEllipse
 10
419.254042
 20
224.501389
 30
0.0
 11
-3.000000000000039
 21
0.0000000074862197
 31
0.0
210
0.0
220
-0.0000000000000002
230
-1.0
 40
0.999921884154356
 41
1.570796324299708
 42
3.141592651094191
  0
LINE
  5
7AE
330
70
100
AcDbEntity
  8
Visible
100
AcDbLine
 10
422.254042
 20
224.501389
 30
0.0
 11
422.254042
 21
224.505139
 31
0.0
210
-1.0
220
0.0000000000000002
230
0.0
  0
ELLIPSE
  5
7AF
330
70
100
AcDbEntity
  8
Visible
100
AcDbEllipse
 10
419.254042
 20
224.505139
 30
0.0
 11
-2.99999999999997
 21
0.000000007033811
 31
0.0
210
0.0
220
0.0000000000000002
230
1.0
 40
0.99992188415438
 41
3.141592655934578
 42
4.71238898272911
  0
LINE
  5
7B0
330
70
100
AcDbEntity
  8
Visible
100
AcDbLine
 10
395.254042
 20
227.501154
 30
0.0
 11
419.254042
 21
227.501154
 31
0.0
210
-1.0
220
0.0000000000000002
230
0.0
  0
ELLIPSE
  5
7B1
330
70
100
AcDbEntity
  8
Visible
100
AcDbEllipse
 10
395.254042
 20
224.501389
 30
0.0
 11
3.000000000000039
 21
0.0000000074900108
 31
0.0
210
0.0
220
-0.0000000000000002
230
-1.0
 40
0.999921884154356
 41
3.141592656086658
 42
4.712388982881163
  0
LINE
  5
7B2
330
70
100
AcDbEntity
  8
Visible
100
AcDbLine
 10
392.2540420000001
 20
224.501389
 30
0.0
 11
392.2540420000001
 21
212.7948265
 31
0.0
210
-1.0
220
0.0000000000000002
230
0.0
  0
LINE
  5
7B3
330
70
100
AcDbEntity
  8
Visible
100
AcDbLine
 10
402.2540420000001
 20
212.7948265
 30
0.0
 11
402.2540420000001
 21
214.494694
 31
0.0
210
-1.0
220
0.0000000000000002
230
0.0
  0
LINE
  5
7B4
330
70
100
AcDbEntity
  8
Visible
100
AcDbLine
 10
402.2540420000001
 20
214.494694
 30
0.0
 11
412.254042
 21
214.494694
 31
0.0
210
-1.0
220
0.0000000000000002
230
0.0
  0
LINE
  5
7B5
330
70
100
AcDbEntity
  8
Visible
100
AcDbLine
 10
412.254042
 20
214.494694
 30
0.0
 11
412.254042
 21
212.7948265
 31
0.0
210
-1.0
220
0.0000000000000002
230
0.0
  0
LINE
  5
7B6
330
70
100
AcDbEntity
  8
Visible
100
AcDbLine
 10
422.254042
 20
224.501389
 30
0.0
 11
422.254042
 21
212.7948265
 31
0.0
210
-1.0
220
0.0000000000000002
230
0.0
  0
LINE
  5
7B7
330
70
100
AcDbEntity
  8
Visible
100
AcDbLine
 10
402.2540420000001
 20
222.0015840000001
 30
0.0
 11
402.2540420000001
 21
224.0014265
 31
0.0
210
-1.0
220
0.0000000000000002
230
0.0
  0
LINE
  5
7B8
330
70
100
AcDbEntity
  8
Visible
100
AcDbLine
 10
412.254042
 20
224.0014265
 30
0.0
 11
412.254042
 21
222.0015840000001
 31
0.0
210
-1.0
220
0.0000000000000002
230
0.0
  0
LINE
  5
7B9
330
70
100
AcDbEntity
  8
Visible
100
AcDbLine
 10
412.254042
 20
222.0015840000001
 30
0.0
 11
402.2540420000001
 21
222.0015840000001
 31
0.0
210
-1.0
220
0.0000000000000002
230
0.0
  0
LINE
  5
7BA
330
70
100
AcDbEntity
  8
Visible
100
AcDbLine
 10
395.254042
 20
227.504904
 30
0.0
 11
419.254042
 21
227.504904
 31
0.0
210
-1.0
220
0.0000000000000002
230
0.0
  0
LINE
  5
7BB
330
70
100
AcDbEntity
  8
Visible
100
AcDbLine
 10
412.254042
 20
222.2270865000001
 30
0.0
 11
402.2540420000001
 21
222.2270865000001
 31
0.0
210
-1.0
220
0.0000000000000002
230
0.0
  0
ELLIPSE
  5
7BC
330
70
100
AcDbEntity
  8
Visible
100
AcDbEllipse
 10
395.254042
 20
224.505139
 30
0.0
 11
3.000000000000039
 21
0.0000000074887472
 31
0.0
210
0.0
220
0.0000000000000002
230
1.0
 40
0.999921884154356
 41
1.570796324298841
 42
3.141592651093348
  0
LINE
  5
7BD
330
70
100
AcDbEntity
  8
Visible
100
AcDbLine
 10
392.2540420000001
 20
224.505139
 30
0.0
 11
392.2540420000001
 21
224.501389
 31
0.0
210
-1.0
220
0.0000000000000002
230
0.0
  0
LINE
  5
7BE
330
70
100
AcDbEntity
  8
Visible
100
AcDbLine
 10
402.2540420000001
 20
212.8023265
 30
0.0
 11
412.254042
 21
212.8023265
 31
0.0
210
-1.0
220
0.0000000000000002
230
0.0
  0
LINE
  5
7BF
330
70
100
AcDbEntity
  8
Visible
100
AcDbLine
 10
412.254042
 20
212.5023265000001
 30
0.0
 11
402.2540420000001
 21
212.5023265000001
 31
0.0
210
-1.0
220
0.0000000000000002
230
0.0
  0
LINE
  5
7C0
330
70
100
AcDbEntity
  8
Visible
100
AcDbLine
 10
412.254042
 20
212.5023265000001
 30
0.0
 11
412.254042
 21
212.7948265
 31
0.0
210
-1.0
220
0.0000000000000002
230
0.0
  0
LINE
  5
7C1
330
70
100
AcDbEntity
  8
Visible
100
AcDbLine
 10
412.254042
 20
212.5023265000001
 30
0.0
 11
422.254042
 21
212.5023265000001
 31
0.0
210
-1.0
220
0.0000000000000002
230
0.0
  0
LINE
  5
7C2
330
70
100
AcDbEntity
  8
Visible
100
AcDbLine
 10
422.254042
 20
212.5023265000001
 30
0.0
 11
422.254042
 21
212.7948265
 31
0.0
210
-1.0
220
0.0000000000000002
230
0.0
  0
LINE
  5
7C3
330
70
100
AcDbEntity
  8
Visible
100
AcDbLine
 10
402.2540420000001
 20
212.7948265
 30
0.0
 11
402.2540420000001
 21
212.5023265000001
 31
0.0
210
-1.0
220
0.0000000000000002
230
0.0
  0
LINE
  5
7C4
330
70
100
AcDbEntity
  8
Visible
100
AcDbLine
 10
392.2540420000001
 20
212.7948265
 30
0.0
 11
392.2540420000001
 21
212.5023265000001
 31
0.0
210
-1.0
220
0.0000000000000002
230
0.0
  0
LINE
  5
7C5
330
70
100
AcDbEntity
  8
Visible
100
AcDbLine
 10
392.2540420000001
 20
212.5023265000001
 30
0.0
 11
402.2540420000001
 21
212.5023265000001
 31
0.0
210
-1.0
220
0.0000000000000002
230
0.0
  0
LINE
  5
7C6
330
70
100
AcDbEntity
  8
Visible
100
AcDbLine
 10
412.254042
 20
222.6735715
 30
0.0
 11
402.2540420000001
 21
222.6735715
 31
0.0
210
-1.0
220
0.0000000000000002
230
0.0
  0
LINE
  5
7C7
330
70
100
AcDbEntity
  8
Visible
100
AcDbLine
 10
402.2540420000001
 20
222.230839
 30
0.0
 11
412.254042
 21
222.230839
 31
0.0
210
-1.0
220
0.0000000000000002
230
0.0
  0
LINE
  5
7C8
330
70
100
AcDbEntity
  8
Visible
100
AcDbLine
 10
402.2540420000001
 20
222.005334
 30
0.0
 11
412.254042
 21
222.005334
 31
0.0
210
-1.0
220
0.0000000000000002
230
0.0
  0
LINE
  5
7C9
330
70
100
AcDbEntity
  8
Visible
100
AcDbLine
 10
57.25404200000001
 20
254.7527715
 30
0.0
 11
57.25404200000001
 21
255.5707165
 31
0.0
210
-1.0
220
0.0000000000000002
230
0.0
  0
LINE
  5
7CA
330
70
100
AcDbEntity
  8
Visible
100
AcDbLine
 10
57.25404200000001
 20
255.672169
 30
0.0
 11
57.25404200000001
 21
255.5707165
 31
0.0
210
-1.0
220
0.0000000000000002
230
0.0
  0
LINE
  5
7CB
330
70
100
AcDbEntity
  8
Visible
100
AcDbLine
 10
57.25404200000001
 20
255.9993465000001
 30
0.0
 11
57.25404200000001
 21
255.672169
 31
0.0
210
-1.0
220
0.0000000000000002
230
0.0
  0
LINE
  5
7CC
330
70
100
AcDbEntity
  8
Visible
100
AcDbLine
 10
57.25404200000001
 20
255.9993465000001
 30
0.0
 11
57.25404200000001
 21
256.1993465
 31
0.0
210
-1.0
220
0.0000000000000002
230
0.0
  0
LINE
  5
7CD
330
70
100
AcDbEntity
  8
Visible
100
AcDbLine
 10
57.25404200000001
 20
259.4993465000001
 30
0.0
 11
57.25404200000001
 21
256.1993465
 31
0.0
210
-1.0
220
0.0000000000000002
230
0.0
  0
LINE
  5
7CE
330
70
100
AcDbEntity
  8
Visible
100
AcDbLine
 10
57.25404200000001
 20
259.4993465000001
 30
0.0
 11
57.25404200000001
 21
259.9993465
 31
0.0
210
-1.0
220
0.0000000000000002
230
0.0
  0
LINE
  5
7CF
330
70
100
AcDbEntity
  8
Visible
100
AcDbLine
 10
757.2540419999998
 20
259.9993465
 30
0.0
 11
57.25404200000001
 21
259.9993465
 31
0.0
210
-1.0
220
0.0000000000000002
230
0.0
  0
LINE
  5
7D0
330
70
100
AcDbEntity
  8
Visible
100
AcDbLine
 10
757.2540419999998
 20
259.4993465000001
 30
0.0
 11
757.2540419999998
 21
259.9993465
 31
0.0
210
-1.0
220
0.0000000000000002
230
0.0
  0
LINE
  5
7D1
330
70
100
AcDbEntity
  8
Visible
100
AcDbLine
 10
757.2540419999998
 20
259.4993465000001
 30
0.0
 11
757.2540419999998
 21
256.1993465
 31
0.0
210
-1.0
220
0.0000000000000002
230
0.0
  0
LINE
  5
7D2
330
70
100
AcDbEntity
  8
Visible
100
AcDbLine
 10
757.2540419999998
 20
255.9993465000001
 30
0.0
 11
57.25404200000001
 21
255.9993465000001
 31
0.0
210
-1.0
220
0.0000000000000002
230
0.0
  0
LINE
  5
7D3
330
70
100
AcDbEntity
  8
Visible
100
AcDbLine
 10
757.2540419999998
 20
255.9993465000001
 30
0.0
 11
757.2540419999998
 21
256.1993465
 31
0.0
210
-1.0
220
0.0000000000000002
230
0.0
  0
LINE
  5
7D4
330
70
100
AcDbEntity
  8
Visible
100
AcDbLine
 10
757.2540419999998
 20
255.9993465000001
 30
0.0
 11
757.2540419999998
 21
255.672169
 31
0.0
210
-1.0
220
0.0000000000000002
230
0.0
  0
LINE
  5
7D5
330
70
100
AcDbEntity
  8
Visible
100
AcDbLine
 10
757.2540419999998
 20
254.7527715
 30
0.0
 11
757.2540419999998
 21
255.5707165
 31
0.0
210
-1.0
220
0.0000000000000002
230
0.0
  0
LINE
  5
7D6
330
70
100
AcDbEntity
  8
Visible
100
AcDbLine
 10
757.2540419999998
 20
255.672169
 30
0.0
 11
757.2540419999998
 21
255.5707165
 31
0.0
210
-1.0
220
0.0000000000000002
230
0.0
  0
LINE
  5
7D7
330
70
100
AcDbEntity
  8
Visible
100
AcDbLine
 10
57.25404200000001
 20
254.7527715
 30
0.0
 11
757.2540419999998
 21
254.7527715
 31
0.0
210
-1.0
220
0.0000000000000002
230
0.0
  0
LINE
  5
7D8
330
70
100
AcDbEntity
  8
Visible
100
AcDbLine
 10
57.25404200000001
 20
245.9993465000001
 30
0.0
 11
757.2540419999998
 21
245.9993465000001
 31
0.0
210
-1.0
220
0.0000000000000002
230
0.0
  0
LINE
  5
7D9
330
70
100
AcDbEntity
  8
Visible
100
AcDbLine
 10
57.25404200000001
 20
245.9993465000001
 30
0.0
 11
57.25404200000001
 21
245.7993465
 31
0.0
210
-1.0
220
0.0000000000000002
230
0.0
  0
LINE
  5
7DA
330
70
100
AcDbEntity
  8
Visible
100
AcDbLine
 10
757.2540419999998
 20
245.7993465
 30
0.0
 11
757.2540419999998
 21
245.9993465000001
 31
0.0
210
-1.0
220
0.0000000000000002
230
0.0
  0
LINE
  5
7DB
330
70
100
AcDbEntity
  8
Visible
100
AcDbLine
 10
57.25404200000001
 20
244.1993465000001
 30
0.0
 11
57.25404200000001
 21
245.7993465
 31
0.0
210
-1.0
220
0.0000000000000002
230
0.0
  0
LINE
  5
7DC
330
70
100
AcDbEntity
  8
Visible
100
AcDbLine
 10
57.25404200000001
 20
244.1993465000001
 30
0.0
 11
757.2540419999998
 21
244.1993465000001
 31
0.0
210
-1.0
220
0.0000000000000002
230
0.0
  0
LINE
  5
7DD
330
70
100
AcDbEntity
  8
Visible
100
AcDbLine
 10
757.2540419999998
 20
245.7993465
 30
0.0
 11
757.2540419999998
 21
244.1993465000001
 31
0.0
210
-1.0
220
0.0000000000000002
230
0.0
  0
LINE
  5
7DE
330
70
100
AcDbEntity
  8
Visible
100
AcDbLine
 10
57.25404200000001
 20
244.1993465000001
 30
0.0
 11
57.25404200000001
 21
242.9993465
 31
0.0
210
-1.0
220
0.0000000000000002
230
0.0
  0
LINE
  5
7DF
330
70
100
AcDbEntity
  8
Visible
100
AcDbLine
 10
757.2540419999998
 20
244.1993465000001
 30
0.0
 11
757.2540419999998
 21
242.9993465
 31
0.0
210
-1.0
220
0.0000000000000002
230
0.0
  0
LINE
  5
7E0
330
70
100
AcDbEntity
  8
Visible
100
AcDbLine
 10
57.25404200000001
 20
242.9993465
 30
0.0
 11
757.2540419999998
 21
242.9993465
 31
0.0
210
-1.0
220
0.0000000000000002
230
0.0
  0
LINE
  5
7E1
330
70
100
AcDbEntity
  8
Visible
100
AcDbLine
 10
57.25404200000001
 20
239.966939
 30
0.0
 11
57.25404200000001
 21
242.9993465
 31
0.0
210
-1.0
220
0.0000000000000002
230
0.0
  0
LINE
  5
7E2
330
70
100
AcDbEntity
  8
Visible
100
AcDbLine
 10
57.25404200000001
 20
239.966939
 30
0.0
 11
127.2898045
 21
239.966939
 31
0.0
210
-1.0
220
0.0000000000000002
230
0.0
  0
LINE
  5
7E3
330
70
100
AcDbEntity
  8
Visible
100
AcDbLine
 10
157.2182795
 20
239.966939
 30
0.0
 11
657.2898044999999
 21
239.966939
 31
0.0
210
-1.0
220
0.0000000000000002
230
0.0
  0
LINE
  5
7E4
330
70
100
AcDbEntity
  8
Visible
100
AcDbLine
 10
687.2182794999998
 20
239.966939
 30
0.0
 11
757.2540419999998
 21
239.966939
 31
0.0
210
-1.0
220
0.0000000000000002
230
0.0
  0
LINE
  5
7E5
330
70
100
AcDbEntity
  8
Visible
100
AcDbLine
 10
757.2540419999998
 20
242.9993465
 30
0.0
 11
757.2540419999998
 21
239.966939
 31
0.0
210
-1.0
220
0.0000000000000002
230
0.0
  0
LINE
  5
7E6
330
70
100
AcDbEntity
  8
Visible
100
AcDbLine
 10
57.25404200000001
 20
239.966939
 30
0.0
 11
57.25404200000001
 21
236.9669390000001
 31
0.0
210
-1.0
220
0.0000000000000002
230
0.0
  0
LINE
  5
7E7
330
70
100
AcDbEntity
  8
Visible
100
AcDbLine
 10
757.2540419999998
 20
239.966939
 30
0.0
 11
757.2540419999998
 21
236.9669390000001
 31
0.0
210
-1.0
220
0.0000000000000002
230
0.0
  0
LINE
  5
7E8
330
70
100
AcDbEntity
  8
Visible
100
AcDbLine
 10
57.25404200000001
 20
236.9669390000001
 30
0.0
 11
127.254042
 21
236.9669390000001
 31
0.0
210
-1.0
220
0.0000000000000002
230
0.0
  0
LINE
  5
7E9
330
70
100
AcDbEntity
  8
Visible
100
AcDbLine
 10
157.254042
 20
236.9669390000001
 30
0.0
 11
657.2540419999998
 21
236.9669390000001
 31
0.0
210
-1.0
220
0.0000000000000002
230
0.0
  0
LINE
  5
7EA
330
70
100
AcDbEntity
  8
Visible
100
AcDbLine
 10
687.2540419999998
 20
236.9669390000001
 30
0.0
 11
757.2540419999998
 21
236.9669390000001
 31
0.0
210
-1.0
220
0.0000000000000002
230
0.0
  0
LINE
  5
7EB
330
70
100
AcDbEntity
  8
Visible
100
AcDbLine
 10
57.25404200000001
 20
229.3023265
 30
0.0
 11
57.25404200000001
 21
236.9669390000001
 31
0.0
210
-1.0
220
0.0000000000000002
230
0.0
  0
LINE
  5
7EC
330
70
100
AcDbEntity
  8
Visible
100
AcDbLine
 10
757.2540419999998
 20
236.9669390000001
 30
0.0
 11
757.2540419999998
 21
229.3023265
 31
0.0
210
-1.0
220
0.0000000000000002
230
0.0
  0
LINE
  5
7ED
330
70
100
AcDbEntity
  8
Visible
100
AcDbLine
 10
57.25404200000001
 20
229.3023265
 30
0.0
 11
57.25404200000001
 21
229.1023265
 31
0.0
210
-1.0
220
0.0000000000000002
230
0.0
  0
LINE
  5
7EE
330
70
100
AcDbEntity
  8
Visible
100
AcDbLine
 10
57.25404200000001
 20
229.1023265
 30
0.0
 11
127.254042
 21
229.1023265
 31
0.0
210
-1.0
220
0.0000000000000002
230
0.0
  0
LINE
  5
7EF
330
70
100
AcDbEntity
  8
Visible
100
AcDbLine
 10
137.254042
 20
229.1023265
 30
0.0
 11
147.254042
 21
229.1023265
 31
0.0
210
-1.0
220
0.0000000000000002
230
0.0
  0
LINE
  5
7F0
330
70
100
AcDbEntity
  8
Visible
100
AcDbLine
 10
157.254042
 20
229.1023265
 30
0.0
 11
657.2540419999998
 21
229.1023265
 31
0.0
210
-1.0
220
0.0000000000000002
230
0.0
  0
LINE
  5
7F1
330
70
100
AcDbEntity
  8
Visible
100
AcDbLine
 10
667.2540419999998
 20
229.1023265
 30
0.0
 11
677.2540419999998
 21
229.1023265
 31
0.0
210
-1.0
220
0.0000000000000002
230
0.0
  0
LINE
  5
7F2
330
70
100
AcDbEntity
  8
Visible
100
AcDbLine
 10
687.2540419999998
 20
229.1023265
 30
0.0
 11
757.2540419999998
 21
229.1023265
 31
0.0
210
-1.0
220
0.0000000000000002
230
0.0
  0
LINE
  5
7F3
330
70
100
AcDbEntity
  8
Visible
100
AcDbLine
 10
757.2540419999998
 20
229.1023265
 30
0.0
 11
757.2540419999998
 21
229.3023265
 31
0.0
210
-1.0
220
0.0000000000000002
230
0.0
  0
LINE
  5
7F4
330
70
100
AcDbEntity
  8
Visible
100
AcDbLine
 10
39.31173700000001
 20
112.150159
 30
0.0
 11
39.31173700000001
 21
111.950159
 31
0.0
210
-1.0
220
-0.0000000000000002
230
-0.0000000000000001
  0
LINE
  5
7F5
330
70
100
AcDbEntity
  8
Visible
100
AcDbLine
 10
39.31173700000001
 20
111.950159
 30
0.0
 11
39.31173700000001
 21
110.050159
 31
0.0
210
-1.0
220
-0.0000000000000002
230
-0.0000000000000001
  0
LINE
  5
7F6
330
70
100
AcDbEntity
  8
Visible
100
AcDbLine
 10
39.31173700000001
 20
96.650159
 30
0.0
 11
39.31173700000001
 21
94.750159
 31
0.0
210
-1.0
220
-0.0000000000000002
230
-0.0000000000000001
  0
LINE
  5
7F7
330
70
100
AcDbEntity
  8
Visible
100
AcDbLine
 10
39.31173700000001
 20
94.750159
 30
0.0
 11
39.31173700000001
 21
94.55015900000001
 31
0.0
210
-1.0
220
-0.0000000000000002
230
-0.0000000000000001
  0
LINE
  5
7F8
330
70
100
AcDbEntity
  8
Visible
100
AcDbLine
 10
54.31173700000001
 20
109.050159
 30
0.0
 11
54.31173700000001
 21
105.550159
 31
0.0
210
-1.0
220
-0.0000000000000002
230
-0.0000000000000001
  0
LINE
  5
7F9
330
70
100
AcDbEntity
  8
Visible
100
AcDbLine
 10
54.31173700000001
 20
101.150159
 30
0.0
 11
54.31173700000001
 21
97.65015900000003
 31
0.0
210
-1.0
220
-0.0000000000000002
230
-0.0000000000000001
  0
LINE
  5
7FA
330
70
100
AcDbEntity
  8
Visible
100
AcDbLine
 10
54.31173700000001
 20
105.550159
 30
0.0
 11
54.31173700000001
 21
101.150159
 31
0.0
210
-1.0
220
-0.0000000000000002
230
-0.0000000000000001
  0
LINE
  5
7FB
330
70
100
AcDbEntity
  8
Visible
100
AcDbLine
 10
54.31173700000001
 20
97.65015900000003
 30
0.0
 11
54.31173700000001
 21
96.650159
 31
0.0
210
-1.0
220
-0.0000000000000002
230
-0.0000000000000001
  0
LINE
  5
7FC
330
70
100
AcDbEntity
  8
Visible
100
AcDbLine
 10
54.31173700000001
 20
110.050159
 30
0.0
 11
54.31173700000001
 21
109.050159
 31
0.0
210
-1.0
220
-0.0000000000000002
230
-0.0000000000000001
  0
LINE
  5
7FD
330
70
100
AcDbEntity
  8
Visible
100
AcDbLine
 10
39.31173700000001
 20
110.850159
 30
0.0
 11
54.31173700000001
 21
110.850159
 31
0.0
210
-1.0
220
-0.0000000000000002
230
-0.0000000000000001
  0
LINE
  5
7FE
330
70
100
AcDbEntity
  8
Visible
100
AcDbLine
 10
54.31173700000001
 20
110.850159
 30
0.0
 11
54.31173700000001
 21
110.050159
 31
0.0
210
-1.0
220
-0.0000000000000002
230
-0.0000000000000001
  0
LINE
  5
7FF
330
70
100
AcDbEntity
  8
Visible
100
AcDbLine
 10
54.31173700000001
 20
96.650159
 30
0.0
 11
54.31173700000001
 21
95.850159
 31
0.0
210
-1.0
220
-0.0000000000000002
230
-0.0000000000000001
  0
LINE
  5
800
330
70
100
AcDbEntity
  8
Visible
100
AcDbLine
 10
54.31173700000001
 20
97.65015900000003
 30
0.0
 11
39.31173700000001
 21
97.65015900000003
 31
0.0
210
-1.0
220
-0.0000000000000002
230
-0.0000000000000001
  0
LINE
  5
801
330
70
100
AcDbEntity
  8
Visible
100
AcDbLine
 10
39.31173700000001
 20
97.65015900000003
 30
0.0
 11
39.31173700000001
 21
101.150159
 31
0.0
210
-1.0
220
-0.0000000000000002
230
-0.0000000000000001
  0
LINE
  5
802
330
70
100
AcDbEntity
  8
Visible
100
AcDbLine
 10
39.31173700000001
 20
101.150159
 30
0.0
 11
54.31173700000001
 21
101.150159
 31
0.0
210
-1.0
220
-0.0000000000000002
230
-0.0000000000000001
  0
LINE
  5
803
330
70
100
AcDbEntity
  8
Visible
100
AcDbLine
 10
39.31173700000001
 20
105.550159
 30
0.0
 11
54.31173700000001
 21
105.550159
 31
0.0
210
-1.0
220
-0.0000000000000002
230
-0.0000000000000001
  0
LINE
  5
804
330
70
100
AcDbEntity
  8
Visible
100
AcDbLine
 10
39.31173700000001
 20
105.550159
 30
0.0
 11
39.31173700000001
 21
109.050159
 31
0.0
210
-1.0
220
-0.0000000000000002
230
-0.0000000000000001
  0
LINE
  5
805
330
70
100
AcDbEntity
  8
Visible
100
AcDbLine
 10
39.31173700000001
 20
109.050159
 30
0.0
 11
54.31173700000001
 21
109.050159
 31
0.0
210
-1.0
220
-0.0000000000000002
230
-0.0000000000000001
  0
LINE
  5
806
330
70
100
AcDbEntity
  8
Visible
100
AcDbLine
 10
39.31173700000001
 20
110.050159
 30
0.0
 11
54.31173700000001
 21
110.050159
 31
0.0
210
-1.0
220
-0.0000000000000002
230
-0.0000000000000001
  0
LINE
  5
807
330
70
100
AcDbEntity
  8
Visible
100
AcDbLine
 10
38.11173700000001
 20
111.950159
 30
0.0
 11
38.11173700000001
 21
94.750159
 31
0.0
210
-1.0
220
-0.0000000000000002
230
-0.0000000000000001
  0
LINE
  5
808
330
70
100
AcDbEntity
  8
Visible
100
AcDbLine
 10
39.31173700000001
 20
96.650159
 30
0.0
 11
54.31173700000001
 21
96.650159
 31
0.0
210
-1.0
220
-0.0000000000000002
230
-0.0000000000000001
  0
LINE
  5
809
330
70
100
AcDbEntity
  8
Visible
100
AcDbLine
 10
54.31173700000001
 20
95.850159
 30
0.0
 11
39.31173700000001
 21
95.850159
 31
0.0
210
-1.0
220
-0.0000000000000002
230
-0.0000000000000001
  0
LINE
  5
80A
330
70
100
AcDbEntity
  8
Visible
100
AcDbLine
 10
39.31173700000001
 20
112.150159
 30
0.0
 11
38.11173700000001
 21
112.150159
 31
0.0
210
-1.0
220
-0.0000000000000002
230
-0.0000000000000001
  0
LINE
  5
80B
330
70
100
AcDbEntity
  8
Visible
100
AcDbLine
 10
38.11173700000001
 20
111.950159
 30
0.0
 11
38.11173700000001
 21
112.150159
 31
0.0
210
-1.0
220
-0.0000000000000002
230
-0.0000000000000001
  0
LINE
  5
80C
330
70
100
AcDbEntity
  8
Visible
100
AcDbLine
 10
38.11173700000001
 20
94.55015900000001
 30
0.0
 11
38.11173700000001
 21
94.750159
 31
0.0
210
-1.0
220
-0.0000000000000002
230
-0.0000000000000001
  0
LINE
  5
80D
330
70
100
AcDbEntity
  8
Visible
100
AcDbLine
 10
38.11173700000001
 20
94.55015900000001
 30
0.0
 11
39.31173700000001
 21
94.55015900000001
 31
0.0
210
-1.0
220
-0.0000000000000002
230
-0.0000000000000001
  0
LINE
  5
80E
330
70
100
AcDbEntity
  8
Visible
100
AcDbLine
 10
760.254042
 20
97.65015900000003
 30
0.0
 11
760.254042
 21
101.150159
 31
0.0
210
-1.0
220
-0.0000000000000002
230
-0.0000000000000001
  0
LINE
  5
80F
330
70
100
AcDbEntity
  8
Visible
100
AcDbLine
 10
760.254042
 20
105.550159
 30
0.0
 11
760.254042
 21
109.050159
 31
0.0
210
-1.0
220
-0.0000000000000002
230
-0.0000000000000001
  0
LINE
  5
810
330
70
100
AcDbEntity
  8
Visible
100
AcDbLine
 10
760.254042
 20
101.150159
 30
0.0
 11
760.254042
 21
105.550159
 31
0.0
210
-1.0
220
-0.0000000000000002
230
-0.0000000000000001
  0
LINE
  5
811
330
70
100
AcDbEntity
  8
Visible
100
AcDbLine
 10
760.254042
 20
109.050159
 30
0.0
 11
760.254042
 21
110.050159
 31
0.0
210
-1.0
220
-0.0000000000000002
230
-0.0000000000000001
  0
LINE
  5
812
330
70
100
AcDbEntity
  8
Visible
100
AcDbLine
 10
760.254042
 20
96.650159
 30
0.0
 11
760.254042
 21
97.65015900000003
 31
0.0
210
-1.0
220
-0.0000000000000002
230
-0.0000000000000001
  0
LINE
  5
813
330
70
100
AcDbEntity
  8
Visible
100
AcDbLine
 10
775.254042
 20
95.850159
 30
0.0
 11
760.254042
 21
95.850159
 31
0.0
210
-1.0
220
-0.0000000000000002
230
-0.0000000000000001
  0
LINE
  5
814
330
70
100
AcDbEntity
  8
Visible
100
AcDbLine
 10
775.254042
 20
110.050159
 30
0.0
 11
775.254042
 21
111.950159
 31
0.0
210
-1.0
220
-0.0000000000000002
230
-0.0000000000000001
  0
LINE
  5
815
330
70
100
AcDbEntity
  8
Visible
100
AcDbLine
 10
775.254042
 20
111.950159
 30
0.0
 11
775.254042
 21
112.150159
 31
0.0
210
-1.0
220
-0.0000000000000002
230
-0.0000000000000001
  0
LINE
  5
816
330
70
100
AcDbEntity
  8
Visible
100
AcDbLine
 10
775.254042
 20
94.55015900000001
 30
0.0
 11
775.254042
 21
94.750159
 31
0.0
210
-1.0
220
-0.0000000000000002
230
-0.0000000000000001
  0
LINE
  5
817
330
70
100
AcDbEntity
  8
Visible
100
AcDbLine
 10
775.254042
 20
94.750159
 30
0.0
 11
775.254042
 21
96.650159
 31
0.0
210
-1.0
220
-0.0000000000000002
230
-0.0000000000000001
  0
LINE
  5
818
330
70
100
AcDbEntity
  8
Visible
100
AcDbLine
 10
760.254042
 20
95.850159
 30
0.0
 11
760.254042
 21
96.650159
 31
0.0
210
-1.0
220
-0.0000000000000002
230
-0.0000000000000001
  0
LINE
  5
819
330
70
100
AcDbEntity
  8
Visible
100
AcDbLine
 10
760.254042
 20
110.050159
 30
0.0
 11
760.254042
 21
110.850159
 31
0.0
210
-1.0
220
-0.0000000000000002
230
-0.0000000000000001
  0
LINE
  5
81A
330
70
100
AcDbEntity
  8
Visible
100
AcDbLine
 10
760.254042
 20
109.050159
 30
0.0
 11
775.254042
 21
109.050159
 31
0.0
210
-1.0
220
-0.0000000000000002
230
-0.0000000000000001
  0
LINE
  5
81B
330
70
100
AcDbEntity
  8
Visible
100
AcDbLine
 10
775.254042
 20
109.050159
 30
0.0
 11
775.254042
 21
105.550159
 31
0.0
210
-1.0
220
-0.0000000000000002
230
-0.0000000000000001
  0
LINE
  5
81C
330
70
100
AcDbEntity
  8
Visible
100
AcDbLine
 10
775.254042
 20
105.550159
 30
0.0
 11
760.254042
 21
105.550159
 31
0.0
210
-1.0
220
-0.0000000000000002
230
-0.0000000000000001
  0
LINE
  5
81D
330
70
100
AcDbEntity
  8
Visible
100
AcDbLine
 10
775.254042
 20
101.150159
 30
0.0
 11
760.254042
 21
101.150159
 31
0.0
210
-1.0
220
-0.0000000000000002
230
-0.0000000000000001
  0
LINE
  5
81E
330
70
100
AcDbEntity
  8
Visible
100
AcDbLine
 10
775.254042
 20
101.150159
 30
0.0
 11
775.254042
 21
97.65015900000003
 31
0.0
210
-1.0
220
-0.0000000000000002
230
-0.0000000000000001
  0
LINE
  5
81F
330
70
100
AcDbEntity
  8
Visible
100
AcDbLine
 10
775.254042
 20
97.65015900000003
 30
0.0
 11
760.254042
 21
97.65015900000003
 31
0.0
210
-1.0
220
-0.0000000000000002
230
-0.0000000000000001
  0
LINE
  5
820
330
70
100
AcDbEntity
  8
Visible
100
AcDbLine
 10
775.254042
 20
96.650159
 30
0.0
 11
760.254042
 21
96.650159
 31
0.0
210
-1.0
220
-0.0000000000000002
230
-0.0000000000000001
  0
LINE
  5
821
330
70
100
AcDbEntity
  8
Visible
100
AcDbLine
 10
776.4540419999998
 20
94.750159
 30
0.0
 11
776.4540419999998
 21
111.950159
 31
0.0
210
-1.0
220
-0.0000000000000002
230
-0.0000000000000001
  0
LINE
  5
822
330
70
100
AcDbEntity
  8
Visible
100
AcDbLine
 10
775.254042
 20
110.050159
 30
0.0
 11
760.254042
 21
110.050159
 31
0.0
210
-1.0
220
-0.0000000000000002
230
-0.0000000000000001
  0
LINE
  5
823
330
70
100
AcDbEntity
  8
Visible
100
AcDbLine
 10
760.254042
 20
110.850159
 30
0.0
 11
775.254042
 21
110.850159
 31
0.0
210
-1.0
220
-0.0000000000000002
230
-0.0000000000000001
  0
LINE
  5
824
330
70
100
AcDbEntity
  8
Visible
100
AcDbLine
 10
775.254042
 20
94.55015900000001
 30
0.0
 11
776.4540419999998
 21
94.55015900000001
 31
0.0
210
-1.0
220
-0.0000000000000002
230
-0.0000000000000001
  0
LINE
  5
825
330
70
100
AcDbEntity
  8
Visible
100
AcDbLine
 10
776.4540419999998
 20
94.750159
 30
0.0
 11
776.4540419999998
 21
94.55015900000001
 31
0.0
210
-1.0
220
-0.0000000000000002
230
-0.0000000000000001
  0
LINE
  5
826
330
70
100
AcDbEntity
  8
Visible
100
AcDbLine
 10
776.4540419999998
 20
112.150159
 30
0.0
 11
776.4540419999998
 21
111.950159
 31
0.0
210
-1.0
220
-0.0000000000000002
230
-0.0000000000000001
  0
LINE
  5
827
330
70
100
AcDbEntity
  8
Visible
100
AcDbLine
 10
776.4540419999998
 20
112.150159
 30
0.0
 11
775.254042
 21
112.150159
 31
0.0
210
-1.0
220
-0.0000000000000002
230
-0.0000000000000001
  0
ELLIPSE
  5
828
330
70
100
AcDbEntity
  8
Visible
100
AcDbEllipse
 10
154.254042
 20
112.5501465
 30
0.0
 11
3.000000000000004
 21
0.0000000000001715
 31
0.0
210
0.0
220
0.0000000000000001
230
-1.0
 40
0.0124990235519817
 41
-1.57079632678471
 42
0.0000000000045608
  0
LINE
  5
829
330
70
100
AcDbEntity
  8
Visible
100
AcDbLine
 10
130.254042
 20
112.587644
 30
0.0
 11
154.254042
 21
112.587644
 31
0.0
210
-1.0
220
-0.0000000000000002
230
-0.0000000000000001
  0
ELLIPSE
  5
82A
330
70
100
AcDbEntity
  8
Visible
100
AcDbEllipse
 10
130.254042
 20
112.5501465
 30
0.0
 11
-3.000000000000042
 21
0.0000000000002173
 31
0.0
210
0.0
220
0.0000000000000001
230
-1.0
 40
0.0124990235519816
 41
-0.0000000000057963
 42
1.570796326783467
  0
LINE
  5
82B
330
70
100
AcDbEntity
  8
Visible
100
AcDbLine
 10
127.254042
 20
112.5501465
 30
0.0
 11
127.254042
 21
112.403814
 31
0.0
210
-1.0
220
-0.0000000000000002
230
-0.0000000000000001
  0
LINE
  5
82C
330
70
100
AcDbEntity
  8
Visible
100
AcDbLine
 10
137.254042
 20
112.403814
 30
0.0
 11
137.254042
 21
112.425064
 31
0.0
210
-1.0
220
-0.0000000000000002
230
-0.0000000000000001
  0
LINE
  5
82D
330
70
100
AcDbEntity
  8
Visible
100
AcDbLine
 10
137.254042
 20
112.425064
 30
0.0
 11
147.254042
 21
112.425064
 31
0.0
210
-1.0
220
-0.0000000000000002
230
-0.0000000000000001
  0
LINE
  5
82E
330
70
100
AcDbEntity
  8
Visible
100
AcDbLine
 10
147.254042
 20
112.425064
 30
0.0
 11
147.254042
 21
112.403814
 31
0.0
210
-1.0
220
-0.0000000000000002
230
-0.0000000000000001
  0
LINE
  5
82F
330
70
100
AcDbEntity
  8
Visible
100
AcDbLine
 10
157.254042
 20
112.5501465
 30
0.0
 11
157.254042
 21
112.403814
 31
0.0
210
-1.0
220
-0.0000000000000002
230
-0.0000000000000001
  0
LINE
  5
830
330
70
100
AcDbEntity
  8
Visible
100
AcDbLine
 10
137.254042
 20
112.518899
 30
0.0
 11
137.254042
 21
112.5438965
 31
0.0
210
-1.0
220
-0.0000000000000002
230
-0.0000000000000001
  0
LINE
  5
831
330
70
100
AcDbEntity
  8
Visible
100
AcDbLine
 10
147.254042
 20
112.5438965
 30
0.0
 11
147.254042
 21
112.518899
 31
0.0
210
-1.0
220
-0.0000000000000002
230
-0.0000000000000001
  0
LINE
  5
832
330
70
100
AcDbEntity
  8
Visible
100
AcDbLine
 10
147.254042
 20
112.518899
 30
0.0
 11
137.254042
 21
112.518899
 31
0.0
210
-1.0
220
-0.0000000000000002
230
-0.0000000000000001
  0
ELLIPSE
  5
833
330
70
100
AcDbEntity
  8
Visible
100
AcDbEllipse
 10
154.254042
 20
94.15017150000002
 30
0.0
 11
3.000000000000004
 21
0.0000000000017875
 31
0.0
210
0.0
220
0.0000000000000001
230
-1.0
 40
0.0124990235516028
 41
0.0000000000476585
 42
1.570796326781485
  0
LINE
  5
834
330
70
100
AcDbEntity
  8
Visible
100
AcDbLine
 10
130.254042
 20
94.11267399999999
 30
0.0
 11
154.254042
 21
94.11267399999999
 31
0.0
210
-1.0
220
-0.0000000000000002
230
-0.0000000000000001
  0
ELLIPSE
  5
835
330
70
100
AcDbEntity
  8
Visible
100
AcDbEllipse
 10
130.254042
 20
94.15017150000002
 30
0.0
 11
-3.000000000000004
 21
0.0000000000017355
 31
0.0
210
0.0
220
0.0000000000000001
230
-1.0
 40
0.0124990235516028
 41
-1.570796326780111
 42
-0.0000000000462843
  0
LINE
  5
836
330
70
100
AcDbEntity
  8
Visible
100
AcDbLine
 10
144.254042
 20
106.8142615
 30
0.0
 11
144.254042
 21
99.88605650000005
 31
0.0
210
-1.0
220
-0.0000000000000002
230
-0.0000000000000001
  0
ARC
  5
837
330
70
100
AcDbEntity
  8
Visible
100
AcDbCircle
 10
-142.254042
 20
103.350159
 30
-0.0000000000000142
 40
3.999999999999994
210
0.0
220
0.0000000000000001
230
-1.0
100
AcDbArc
 50
240.0000039999999
 51
300.0000039999999
  0
LINE
  5
838
330
70
100
AcDbEntity
  8
Visible
100
AcDbLine
 10
140.254042
 20
99.88605650000005
 30
0.0
 11
140.254042
 21
106.814259
 31
0.0
210
-1.0
220
-0.0000000000000002
230
-0.0000000000000001
  0
ARC
  5
839
330
70
100
AcDbEntity
  8
Visible
100
AcDbCircle
 10
-142.254042
 20
103.350159
 30
-0.0000000000000142
 40
4.00000000000001
210
0.0
220
0.0000000000000001
230
-1.0
100
AcDbArc
 50
59.99999599999999
 51
119.9999960000001
  0
LINE
  5
83A
330
70
100
AcDbEntity
  8
Visible
100
AcDbLine
 10
147.254042
 20
96.29656400000001
 30
0.0
 11
137.254042
 21
96.29656400000001
 31
0.0
210
-1.0
220
-0.0000000000000002
230
-0.0000000000000001
  0
LINE
  5
83B
330
70
100
AcDbEntity
  8
Visible
100
AcDbLine
 10
137.254042
 20
96.30031400000001
 30
0.0
 11
147.254042
 21
96.30031400000001
 31
0.0
210
-1.0
220
-0.0000000000000002
230
-0.0000000000000001
  0
LINE
  5
83C
330
70
100
AcDbEntity
  8
Visible
100
AcDbLine
 10
137.254042
 20
94.59268150000005
 30
0.0
 11
137.254042
 21
94.2965015
 31
0.0
210
-1.0
220
-0.0000000000000002
230
-0.0000000000000001
  0
LINE
  5
83D
330
70
100
AcDbEntity
  8
Visible
100
AcDbLine
 10
127.254042
 20
94.59268150000005
 30
0.0
 11
127.254042
 21
94.2965015
 31
0.0
210
-1.0
220
-0.0000000000000002
230
-0.0000000000000001
  0
LINE
  5
83E
330
70
100
AcDbEntity
  8
Visible
100
AcDbLine
 10
147.254042
 20
94.2965015
 30
0.0
 11
147.254042
 21
94.59268150000005
 31
0.0
210
-1.0
220
-0.0000000000000002
230
-0.0000000000000001
  0
LINE
  5
83F
330
70
100
AcDbEntity
  8
Visible
100
AcDbLine
 10
157.254042
 20
94.2965015
 30
0.0
 11
157.254042
 21
94.59268150000005
 31
0.0
210
-1.0
220
-0.0000000000000002
230
-0.0000000000000001
  0
LINE
  5
840
330
70
100
AcDbEntity
  8
Visible
100
AcDbLine
 10
147.254042
 20
94.27525400000002
 30
0.0
 11
137.254042
 21
94.27525400000002
 31
0.0
210
-1.0
220
-0.0000000000000002
230
-0.0000000000000001
  0
LINE
  5
841
330
70
100
AcDbEntity
  8
Visible
100
AcDbLine
 10
147.254042
 20
94.2965015
 30
0.0
 11
147.254042
 21
94.27525400000002
 31
0.0
210
-1.0
220
-0.0000000000000002
230
-0.0000000000000001
  0
LINE
  5
842
330
70
100
AcDbEntity
  8
Visible
100
AcDbLine
 10
147.254042
 20
96.30031400000001
 30
0.0
 11
147.254042
 21
94.59268150000005
 31
0.0
210
-1.0
220
-0.0000000000000002
230
-0.0000000000000001
  0
LINE
  5
843
330
70
100
AcDbEntity
  8
Visible
100
AcDbLine
 10
137.254042
 20
94.27525400000002
 30
0.0
 11
137.254042
 21
94.2965015
 31
0.0
210
-1.0
220
-0.0000000000000002
230
-0.0000000000000001
  0
LINE
  5
844
330
70
100
AcDbEntity
  8
Visible
100
AcDbLine
 10
137.254042
 20
94.59268150000005
 30
0.0
 11
137.254042
 21
96.30031400000001
 31
0.0
210
-1.0
220
-0.0000000000000002
230
-0.0000000000000001
  0
LINE
  5
845
330
70
100
AcDbEntity
  8
Visible
100
AcDbLine
 10
137.254042
 20
110.103729
 30
0.0
 11
147.254042
 21
110.103729
 31
0.0
210
-1.0
220
-0.0000000000000002
230
-0.0000000000000001
  0
LINE
  5
846
330
70
100
AcDbEntity
  8
Visible
100
AcDbLine
 10
147.254042
 20
110.099979
 30
0.0
 11
137.254042
 21
110.099979
 31
0.0
210
-1.0
220
-0.0000000000000002
230
-0.0000000000000001
  0
LINE
  5
847
330
70
100
AcDbEntity
  8
Visible
100
AcDbLine
 10
147.254042
 20
112.107634
 30
0.0
 11
147.254042
 21
112.403814
 31
0.0
210
-1.0
220
-0.0000000000000002
230
-0.0000000000000001
  0
LINE
  5
848
330
70
100
AcDbEntity
  8
Visible
100
AcDbLine
 10
157.254042
 20
112.107634
 30
0.0
 11
157.254042
 21
112.403814
 31
0.0
210
-1.0
220
-0.0000000000000002
230
-0.0000000000000001
  0
LINE
  5
849
330
70
100
AcDbEntity
  8
Visible
100
AcDbLine
 10
137.254042
 20
112.403814
 30
0.0
 11
137.254042
 21
112.107634
 31
0.0
210
-1.0
220
-0.0000000000000002
230
-0.0000000000000001
  0
LINE
  5
84A
330
70
100
AcDbEntity
  8
Visible
100
AcDbLine
 10
127.254042
 20
112.403814
 30
0.0
 11
127.254042
 21
112.107634
 31
0.0
210
-1.0
220
-0.0000000000000002
230
-0.0000000000000001
  0
LINE
  5
84B
330
70
100
AcDbEntity
  8
Visible
100
AcDbLine
 10
147.254042
 20
112.107634
 30
0.0
 11
147.254042
 21
110.099979
 31
0.0
210
-1.0
220
-0.0000000000000002
230
-0.0000000000000001
  0
LINE
  5
84C
330
70
100
AcDbEntity
  8
Visible
100
AcDbLine
 10
137.254042
 20
110.099979
 30
0.0
 11
137.254042
 21
112.107634
 31
0.0
210
-1.0
220
-0.0000000000000002
230
-0.0000000000000001
  0
LINE
  5
84D
330
70
100
AcDbEntity
  8
Visible
100
AcDbLine
 10
137.254042
 20
94.15363900000002
 30
0.0
 11
137.254042
 21
94.17855150000002
 31
0.0
210
-1.0
220
-0.0000000000000002
230
-0.0000000000000001
  0
LINE
  5
84E
330
70
100
AcDbEntity
  8
Visible
100
AcDbLine
 10
137.254042
 20
94.17855150000002
 30
0.0
 11
147.254042
 21
94.17855150000002
 31
0.0
210
-1.0
220
-0.0000000000000002
230
-0.0000000000000001
  0
LINE
  5
84F
330
70
100
AcDbEntity
  8
Visible
100
AcDbLine
 10
147.254042
 20
94.17855150000002
 30
0.0
 11
147.254042
 21
94.15363900000002
 31
0.0
210
-1.0
220
-0.0000000000000002
230
-0.0000000000000001
  0
LINE
  5
850
330
70
100
AcDbEntity
  8
Visible
100
AcDbLine
 10
157.254042
 20
94.2965015
 30
0.0
 11
157.254042
 21
94.15017150000002
 31
0.0
210
-1.0
220
-0.0000000000000002
230
-0.0000000000000001
  0
LINE
  5
851
330
70
100
AcDbEntity
  8
Visible
100
AcDbLine
 10
127.254042
 20
94.15017150000002
 30
0.0
 11
127.254042
 21
94.2965015
 31
0.0
210
-1.0
220
-0.0000000000000002
230
-0.0000000000000001
  0
LINE
  5
852
330
70
100
AcDbEntity
  8
Visible
100
AcDbLine
 10
157.254042
 20
112.107634
 30
0.0
 11
157.254042
 21
94.59268150000005
 31
0.0
210
-1.0
220
-0.0000000000000002
230
-0.0000000000000001
  0
LINE
  5
853
330
70
100
AcDbEntity
  8
Visible
100
AcDbLine
 10
127.254042
 20
94.59268150000005
 30
0.0
 11
127.254042
 21
112.107634
 31
0.0
210
-1.0
220
-0.0000000000000002
230
-0.0000000000000001
  0
ELLIPSE
  5
854
330
70
100
AcDbEntity
  8
Visible
100
AcDbEllipse
 10
684.2540419999998
 20
112.5501465
 30
0.0
 11
2.99999999999997
 21
0.0000000000001728
 31
0.0
210
0.0
220
0.0000000000000001
230
-1.0
 40
0.0124990235519819
 41
-1.57079632678471
 42
0.0000000000045963
  0
LINE
  5
855
330
70
100
AcDbEntity
  8
Visible
100
AcDbLine
 10
660.254042
 20
112.587644
 30
0.0
 11
684.2540419999998
 21
112.587644
 31
0.0
210
-1.0
220
-0.0000000000000002
230
-0.0000000000000001
  0
ELLIPSE
  5
856
330
70
100
AcDbEntity
  8
Visible
100
AcDbEllipse
 10
660.254042
 20
112.5501465
 30
0.0
 11
-2.99999999999997
 21
0.000000000000218
 31
0.0
210
0.0
220
0.0000000000000001
230
-1.0
 40
0.0124990235519819
 41
-0.000000000005814
 42
1.570796326783478
  0
LINE
  5
857
330
70
100
AcDbEntity
  8
Visible
100
AcDbLine
 10
657.2540419999998
 20
112.5501465
 30
0.0
 11
657.2540419999998
 21
112.403814
 31
0.0
210
-1.0
220
-0.0000000000000002
230
-0.0000000000000001
  0
LINE
  5
858
330
70
100
AcDbEntity
  8
Visible
100
AcDbLine
 10
667.2540419999998
 20
112.403814
 30
0.0
 11
667.2540419999998
 21
112.425064
 31
0.0
210
-1.0
220
-0.0000000000000002
230
-0.0000000000000001
  0
LINE
  5
859
330
70
100
AcDbEntity
  8
Visible
100
AcDbLine
 10
667.2540419999998
 20
112.425064
 30
0.0
 11
677.2540419999998
 21
112.425064
 31
0.0
210
-1.0
220
-0.0000000000000002
230
-0.0000000000000001
  0
LINE
  5
85A
330
70
100
AcDbEntity
  8
Visible
100
AcDbLine
 10
677.2540419999998
 20
112.425064
 30
0.0
 11
677.2540419999998
 21
112.403814
 31
0.0
210
-1.0
220
-0.0000000000000002
230
-0.0000000000000001
  0
LINE
  5
85B
330
70
100
AcDbEntity
  8
Visible
100
AcDbLine
 10
687.2540419999998
 20
112.5501465
 30
0.0
 11
687.2540419999998
 21
112.403814
 31
0.0
210
-1.0
220
-0.0000000000000002
230
-0.0000000000000001
  0
LINE
  5
85C
330
70
100
AcDbEntity
  8
Visible
100
AcDbLine
 10
667.2540419999998
 20
112.518899
 30
0.0
 11
667.2540419999998
 21
112.5438965
 31
0.0
210
-1.0
220
-0.0000000000000002
230
-0.0000000000000001
  0
LINE
  5
85D
330
70
100
AcDbEntity
  8
Visible
100
AcDbLine
 10
677.2540419999998
 20
112.5438965
 30
0.0
 11
677.2540419999998
 21
112.518899
 31
0.0
210
-1.0
220
-0.0000000000000002
230
-0.0000000000000001
  0
LINE
  5
85E
330
70
100
AcDbEntity
  8
Visible
100
AcDbLine
 10
677.2540419999998
 20
112.518899
 30
0.0
 11
667.2540419999998
 21
112.518899
 31
0.0
210
-1.0
220
-0.0000000000000002
230
-0.0000000000000001
  0
ELLIPSE
  5
85F
330
70
100
AcDbEntity
  8
Visible
100
AcDbEllipse
 10
684.2540419999998
 20
94.15017150000002
 30
0.0
 11
2.99999999999997
 21
0.000000000001788
 31
0.0
210
0.0
220
0.0000000000000001
230
-1.0
 40
0.0124990235516029
 41
0.0000000000476763
 42
1.570796326781498
  0
LINE
  5
860
330
70
100
AcDbEntity
  8
Visible
100
AcDbLine
 10
660.254042
 20
94.11267399999999
 30
0.0
 11
684.2540419999998
 21
94.11267399999999
 31
0.0
210
-1.0
220
-0.0000000000000002
230
-0.0000000000000001
  0
ELLIPSE
  5
861
330
70
100
AcDbEntity
  8
Visible
100
AcDbEllipse
 10
660.254042
 20
94.15017150000002
 30
0.0
 11
-2.99999999999997
 21
0.0000000000017355
 31
0.0
210
0.0
220
0.0000000000000001
230
-1.0
 40
0.0124990235516029
 41
-1.570796326780123
 42
-0.0000000000462843
  0
LINE
  5
862
330
70
100
AcDbEntity
  8
Visible
100
AcDbLine
 10
674.2540419999999
 20
106.8142615
 30
0.0
 11
674.2540419999999
 21
99.88605650000005
 31
0.0
210
-1.0
220
-0.0000000000000002
230
-0.0000000000000001
  0
ARC
  5
863
330
70
100
AcDbEntity
  8
Visible
100
AcDbCircle
 10
-672.2540419999997
 20
103.350159
 30
-0.0000000000000142
 40
3.999999999999994
210
0.0
220
0.0000000000000001
230
-1.0
100
AcDbArc
 50
240.0000039999999
 51
300.0000039999999
  0
LINE
  5
864
330
70
100
AcDbEntity
  8
Visible
100
AcDbLine
 10
670.254042
 20
99.88605650000005
 30
0.0
 11
670.254042
 21
106.814259
 31
0.0
210
-1.0
220
-0.0000000000000002
230
-0.0000000000000001
  0
ARC
  5
865
330
70
100
AcDbEntity
  8
Visible
100
AcDbCircle
 10
-672.2540419999997
 20
103.350159
 30
-0.0000000000000142
 40
4.00000000000001
210
0.0
220
0.0000000000000001
230
-1.0
100
AcDbArc
 50
59.99999599999999
 51
119.9999960000001
  0
LINE
  5
866
330
70
100
AcDbEntity
  8
Visible
100
AcDbLine
 10
677.2540419999998
 20
96.29656400000001
 30
0.0
 11
667.2540419999998
 21
96.29656400000001
 31
0.0
210
-1.0
220
-0.0000000000000002
230
-0.0000000000000001
  0
LINE
  5
867
330
70
100
AcDbEntity
  8
Visible
100
AcDbLine
 10
667.2540419999998
 20
96.30031400000001
 30
0.0
 11
677.2540419999998
 21
96.30031400000001
 31
0.0
210
-1.0
220
-0.0000000000000002
230
-0.0000000000000001
  0
LINE
  5
868
330
70
100
AcDbEntity
  8
Visible
100
AcDbLine
 10
667.2540419999998
 20
94.59268150000005
 30
0.0
 11
667.2540419999998
 21
94.2965015
 31
0.0
210
-1.0
220
-0.0000000000000002
230
-0.0000000000000001
  0
LINE
  5
869
330
70
100
AcDbEntity
  8
Visible
100
AcDbLine
 10
657.2540419999998
 20
94.59268150000005
 30
0.0
 11
657.2540419999998
 21
94.2965015
 31
0.0
210
-1.0
220
-0.0000000000000002
230
-0.0000000000000001
  0
LINE
  5
86A
330
70
100
AcDbEntity
  8
Visible
100
AcDbLine
 10
677.2540419999998
 20
94.2965015
 30
0.0
 11
677.2540419999998
 21
94.59268150000005
 31
0.0
210
-1.0
220
-0.0000000000000002
230
-0.0000000000000001
  0
LINE
  5
86B
330
70
100
AcDbEntity
  8
Visible
100
AcDbLine
 10
687.2540419999998
 20
94.2965015
 30
0.0
 11
687.2540419999998
 21
94.59268150000005
 31
0.0
210
-1.0
220
-0.0000000000000002
230
-0.0000000000000001
  0
LINE
  5
86C
330
70
100
AcDbEntity
  8
Visible
100
AcDbLine
 10
677.2540419999998
 20
94.27525400000002
 30
0.0
 11
667.2540419999998
 21
94.27525400000002
 31
0.0
210
-1.0
220
-0.0000000000000002
230
-0.0000000000000001
  0
LINE
  5
86D
330
70
100
AcDbEntity
  8
Visible
100
AcDbLine
 10
677.2540419999998
 20
94.2965015
 30
0.0
 11
677.2540419999998
 21
94.27525400000002
 31
0.0
210
-1.0
220
-0.0000000000000002
230
-0.0000000000000001
  0
LINE
  5
86E
330
70
100
AcDbEntity
  8
Visible
100
AcDbLine
 10
677.2540419999998
 20
96.30031400000001
 30
0.0
 11
677.2540419999998
 21
94.59268150000005
 31
0.0
210
-1.0
220
-0.0000000000000002
230
-0.0000000000000001
  0
LINE
  5
86F
330
70
100
AcDbEntity
  8
Visible
100
AcDbLine
 10
667.2540419999998
 20
94.27525400000002
 30
0.0
 11
667.2540419999998
 21
94.2965015
 31
0.0
210
-1.0
220
-0.0000000000000002
230
-0.0000000000000001
  0
LINE
  5
870
330
70
100
AcDbEntity
  8
Visible
100
AcDbLine
 10
667.2540419999998
 20
94.59268150000005
 30
0.0
 11
667.2540419999998
 21
96.30031400000001
 31
0.0
210
-1.0
220
-0.0000000000000002
230
-0.0000000000000001
  0
LINE
  5
871
330
70
100
AcDbEntity
  8
Visible
100
AcDbLine
 10
667.2540419999998
 20
110.103729
 30
0.0
 11
677.2540419999998
 21
110.103729
 31
0.0
210
-1.0
220
-0.0000000000000002
230
-0.0000000000000001
  0
LINE
  5
872
330
70
100
AcDbEntity
  8
Visible
100
AcDbLine
 10
677.2540419999998
 20
110.099979
 30
0.0
 11
667.2540419999998
 21
110.099979
 31
0.0
210
-1.0
220
-0.0000000000000002
230
-0.0000000000000001
  0
LINE
  5
873
330
70
100
AcDbEntity
  8
Visible
100
AcDbLine
 10
677.2540419999998
 20
112.107634
 30
0.0
 11
677.2540419999998
 21
112.403814
 31
0.0
210
-1.0
220
-0.0000000000000002
230
-0.0000000000000001
  0
LINE
  5
874
330
70
100
AcDbEntity
  8
Visible
100
AcDbLine
 10
687.2540419999998
 20
112.107634
 30
0.0
 11
687.2540419999998
 21
112.403814
 31
0.0
210
-1.0
220
-0.0000000000000002
230
-0.0000000000000001
  0
LINE
  5
875
330
70
100
AcDbEntity
  8
Visible
100
AcDbLine
 10
667.2540419999998
 20
112.403814
 30
0.0
 11
667.2540419999998
 21
112.107634
 31
0.0
210
-1.0
220
-0.0000000000000002
230
-0.0000000000000001
  0
LINE
  5
876
330
70
100
AcDbEntity
  8
Visible
100
AcDbLine
 10
657.2540419999998
 20
112.403814
 30
0.0
 11
657.2540419999998
 21
112.107634
 31
0.0
210
-1.0
220
-0.0000000000000002
230
-0.0000000000000001
  0
LINE
  5
877
330
70
100
AcDbEntity
  8
Visible
100
AcDbLine
 10
677.2540419999998
 20
112.107634
 30
0.0
 11
677.2540419999998
 21
110.099979
 31
0.0
210
-1.0
220
-0.0000000000000002
230
-0.0000000000000001
  0
LINE
  5
878
330
70
100
AcDbEntity
  8
Visible
100
AcDbLine
 10
667.2540419999998
 20
110.099979
 30
0.0
 11
667.2540419999998
 21
112.107634
 31
0.0
210
-1.0
220
-0.0000000000000002
230
-0.0000000000000001
  0
LINE
  5
879
330
70
100
AcDbEntity
  8
Visible
100
AcDbLine
 10
667.2540419999998
 20
94.15363900000002
 30
0.0
 11
667.2540419999998
 21
94.17855150000002
 31
0.0
210
-1.0
220
-0.0000000000000002
230
-0.0000000000000001
  0
LINE
  5
87A
330
70
100
AcDbEntity
  8
Visible
100
AcDbLine
 10
667.2540419999998
 20
94.17855150000002
 30
0.0
 11
677.2540419999998
 21
94.17855150000002
 31
0.0
210
-1.0
220
-0.0000000000000002
230
-0.0000000000000001
  0
LINE
  5
87B
330
70
100
AcDbEntity
  8
Visible
100
AcDbLine
 10
677.2540419999998
 20
94.17855150000002
 30
0.0
 11
677.2540419999998
 21
94.15363900000002
 31
0.0
210
-1.0
220
-0.0000000000000002
230
-0.0000000000000001
  0
LINE
  5
87C
330
70
100
AcDbEntity
  8
Visible
100
AcDbLine
 10
687.2540419999998
 20
94.2965015
 30
0.0
 11
687.2540419999998
 21
94.15017150000002
 31
0.0
210
-1.0
220
-0.0000000000000002
230
-0.0000000000000001
  0
LINE
  5
87D
330
70
100
AcDbEntity
  8
Visible
100
AcDbLine
 10
657.2540419999998
 20
94.15017150000002
 30
0.0
 11
657.2540419999998
 21
94.2965015
 31
0.0
210
-1.0
220
-0.0000000000000002
230
-0.0000000000000001
  0
LINE
  5
87E
330
70
100
AcDbEntity
  8
Visible
100
AcDbLine
 10
687.2540419999998
 20
112.107634
 30
0.0
 11
687.2540419999998
 21
94.59268150000005
 31
0.0
210
-1.0
220
-0.0000000000000002
230
-0.0000000000000001
  0
LINE
  5
87F
330
70
100
AcDbEntity
  8
Visible
100
AcDbLine
 10
657.2540419999998
 20
94.59268150000005
 30
0.0
 11
657.2540419999998
 21
112.107634
 31
0.0
210
-1.0
220
-0.0000000000000002
230
-0.0000000000000001
  0
ELLIPSE
  5
880
330
70
100
AcDbEntity
  8
Visible
100
AcDbEllipse
 10
419.254042
 20
112.5501465
 30
0.0
 11
3.000000000000039
 21
0.0000000000001708
 31
0.0
210
0.0
220
0.0000000000000001
230
-1.0
 40
0.0124990235519816
 41
-1.57079632678471
 42
0.000000000004543
  0
LINE
  5
881
330
70
100
AcDbEntity
  8
Visible
100
AcDbLine
 10
395.254042
 20
112.587644
 30
0.0
 11
419.254042
 21
112.587644
 31
0.0
210
-1.0
220
-0.0000000000000002
230
-0.0000000000000001
  0
ELLIPSE
  5
882
330
70
100
AcDbEntity
  8
Visible
100
AcDbEllipse
 10
395.254042
 20
112.5501465
 30
0.0
 11
-3.000000000000042
 21
0.0000000000002173
 31
0.0
210
0.0
220
0.0000000000000001
230
-1.0
 40
0.0124990235519816
 41
-0.0000000000057963
 42
1.570796326783478
  0
LINE
  5
883
330
70
100
AcDbEntity
  8
Visible
100
AcDbLine
 10
392.2540420000001
 20
112.5501465
 30
0.0
 11
392.2540420000001
 21
112.403814
 31
0.0
210
-1.0
220
-0.0000000000000002
230
-0.0000000000000001
  0
LINE
  5
884
330
70
100
AcDbEntity
  8
Visible
100
AcDbLine
 10
402.2540420000001
 20
112.403814
 30
0.0
 11
402.2540420000001
 21
112.425064
 31
0.0
210
-1.0
220
-0.0000000000000002
230
-0.0000000000000001
  0
LINE
  5
885
330
70
100
AcDbEntity
  8
Visible
100
AcDbLine
 10
402.2540420000001
 20
112.425064
 30
0.0
 11
412.254042
 21
112.425064
 31
0.0
210
-1.0
220
-0.0000000000000002
230
-0.0000000000000001
  0
LINE
  5
886
330
70
100
AcDbEntity
  8
Visible
100
AcDbLine
 10
412.254042
 20
112.425064
 30
0.0
 11
412.254042
 21
112.403814
 31
0.0
210
-1.0
220
-0.0000000000000002
230
-0.0000000000000001
  0
LINE
  5
887
330
70
100
AcDbEntity
  8
Visible
100
AcDbLine
 10
422.254042
 20
112.5501465
 30
0.0
 11
422.254042
 21
112.403814
 31
0.0
210
-1.0
220
-0.0000000000000002
230
-0.0000000000000001
  0
LINE
  5
888
330
70
100
AcDbEntity
  8
Visible
100
AcDbLine
 10
402.2540420000001
 20
112.518899
 30
0.0
 11
402.2540420000001
 21
112.5438965
 31
0.0
210
-1.0
220
-0.0000000000000002
230
-0.0000000000000001
  0
LINE
  5
889
330
70
100
AcDbEntity
  8
Visible
100
AcDbLine
 10
412.254042
 20
112.5438965
 30
0.0
 11
412.254042
 21
112.518899
 31
0.0
210
-1.0
220
-0.0000000000000002
230
-0.0000000000000001
  0
LINE
  5
88A
330
70
100
AcDbEntity
  8
Visible
100
AcDbLine
 10
412.254042
 20
112.518899
 30
0.0
 11
402.2540420000001
 21
112.518899
 31
0.0
210
-1.0
220
-0.0000000000000002
230
-0.0000000000000001
  0
ELLIPSE
  5
88B
330
70
100
AcDbEntity
  8
Visible
100
AcDbEllipse
 10
419.254042
 20
94.15017150000002
 30
0.0
 11
3.000000000000042
 21
0.0000000000017875
 31
0.0
210
0.0
220
0.0000000000000001
230
-1.0
 40
0.0124990235516026
 41
0.0000000000476585
 42
1.570796326781473
  0
LINE
  5
88C
330
70
100
AcDbEntity
  8
Visible
100
AcDbLine
 10
402.2540420000001
 20
94.5752315
 30
0.0
 11
412.254042
 21
94.5752315
 31
0.0
210
-1.0
220
-0.0000000000000002
230
-0.0000000000000001
  0
LINE
  5
88D
330
70
100
AcDbEntity
  8
Visible
100
AcDbLine
 10
395.254042
 20
94.11267399999999
 30
0.0
 11
419.254042
 21
94.11267399999999
 31
0.0
210
-1.0
220
-0.0000000000000002
230
-0.0000000000000001
  0
ELLIPSE
  5
88E
330
70
100
AcDbEntity
  8
Visible
100
AcDbEllipse
 10
395.254042
 20
94.15017150000002
 30
0.0
 11
-2.99999999999997
 21
0.0000000000017368
 31
0.0
210
0.0
220
0.0000000000000001
230
-1.0
 40
0.0124990235516029
 41
-1.570796326780123
 42
-0.0000000000463554
  0
LINE
  5
88F
330
70
100
AcDbEntity
  8
Visible
100
AcDbLine
 10
409.254042
 20
106.8142615
 30
0.0
 11
409.254042
 21
99.88605650000005
 31
0.0
210
-1.0
220
-0.0000000000000002
230
-0.0000000000000001
  0
ARC
  5
890
330
70
100
AcDbEntity
  8
Visible
100
AcDbCircle
 10
-407.2540420000001
 20
103.350159
 30
-0.0000000000000142
 40
3.999999999999994
210
0.0
220
0.0000000000000001
230
-1.0
100
AcDbArc
 50
240.0000039999999
 51
300.0000039999999
  0
LINE
  5
891
330
70
100
AcDbEntity
  8
Visible
100
AcDbLine
 10
405.254042
 20
99.88605650000005
 30
0.0
 11
405.254042
 21
106.814259
 31
0.0
210
-1.0
220
-0.0000000000000002
230
-0.0000000000000001
  0
ARC
  5
892
330
70
100
AcDbEntity
  8
Visible
100
AcDbCircle
 10
-407.2540420000001
 20
103.350159
 30
-0.0000000000000142
 40
4.00000000000001
210
0.0
220
0.0000000000000001
230
-1.0
100
AcDbArc
 50
59.99999599999999
 51
119.9999960000001
  0
LINE
  5
893
330
70
100
AcDbEntity
  8
Visible
100
AcDbLine
 10
412.254042
 20
96.29656400000001
 30
0.0
 11
402.2540420000001
 21
96.29656400000001
 31
0.0
210
-1.0
220
-0.0000000000000002
230
-0.0000000000000001
  0
LINE
  5
894
330
70
100
AcDbEntity
  8
Visible
100
AcDbLine
 10
402.2540420000001
 20
96.30031400000001
 30
0.0
 11
412.254042
 21
96.30031400000001
 31
0.0
210
-1.0
220
-0.0000000000000002
230
-0.0000000000000001
  0
LINE
  5
895
330
70
100
AcDbEntity
  8
Visible
100
AcDbLine
 10
402.2540420000001
 20
94.59268150000005
 30
0.0
 11
402.2540420000001
 21
94.2965015
 31
0.0
210
-1.0
220
-0.0000000000000002
230
-0.0000000000000001
  0
LINE
  5
896
330
70
100
AcDbEntity
  8
Visible
100
AcDbLine
 10
392.2540420000001
 20
94.59268150000005
 30
0.0
 11
392.2540420000001
 21
94.2965015
 31
0.0
210
-1.0
220
-0.0000000000000002
230
-0.0000000000000001
  0
LINE
  5
897
330
70
100
AcDbEntity
  8
Visible
100
AcDbLine
 10
412.254042
 20
94.2965015
 30
0.0
 11
412.254042
 21
94.59268150000005
 31
0.0
210
-1.0
220
-0.0000000000000002
230
-0.0000000000000001
  0
LINE
  5
898
330
70
100
AcDbEntity
  8
Visible
100
AcDbLine
 10
422.254042
 20
94.2965015
 30
0.0
 11
422.254042
 21
94.59268150000005
 31
0.0
210
-1.0
220
-0.0000000000000002
230
-0.0000000000000001
  0
LINE
  5
899
330
70
100
AcDbEntity
  8
Visible
100
AcDbLine
 10
412.254042
 20
94.27525400000002
 30
0.0
 11
402.2540420000001
 21
94.27525400000002
 31
0.0
210
-1.0
220
-0.0000000000000002
230
-0.0000000000000001
  0
LINE
  5
89A
330
70
100
AcDbEntity
  8
Visible
100
AcDbLine
 10
412.254042
 20
94.2965015
 30
0.0
 11
412.254042
 21
94.27525400000002
 31
0.0
210
-1.0
220
-0.0000000000000002
230
-0.0000000000000001
  0
LINE
  5
89B
330
70
100
AcDbEntity
  8
Visible
100
AcDbLine
 10
412.254042
 20
96.30031400000001
 30
0.0
 11
412.254042
 21
94.59268150000005
 31
0.0
210
-1.0
220
-0.0000000000000002
230
-0.0000000000000001
  0
LINE
  5
89C
330
70
100
AcDbEntity
  8
Visible
100
AcDbLine
 10
402.2540420000001
 20
94.27525400000002
 30
0.0
 11
402.2540420000001
 21
94.2965015
 31
0.0
210
-1.0
220
-0.0000000000000002
230
-0.0000000000000001
  0
LINE
  5
89D
330
70
100
AcDbEntity
  8
Visible
100
AcDbLine
 10
402.2540420000001
 20
94.59268150000005
 30
0.0
 11
402.2540420000001
 21
96.30031400000001
 31
0.0
210
-1.0
220
-0.0000000000000002
230
-0.0000000000000001
  0
LINE
  5
89E
330
70
100
AcDbEntity
  8
Visible
100
AcDbLine
 10
402.2540420000001
 20
110.103729
 30
0.0
 11
412.254042
 21
110.103729
 31
0.0
210
-1.0
220
-0.0000000000000002
230
-0.0000000000000001
  0
LINE
  5
89F
330
70
100
AcDbEntity
  8
Visible
100
AcDbLine
 10
412.254042
 20
110.099979
 30
0.0
 11
402.2540420000001
 21
110.099979
 31
0.0
210
-1.0
220
-0.0000000000000002
230
-0.0000000000000001
  0
LINE
  5
8A0
330
70
100
AcDbEntity
  8
Visible
100
AcDbLine
 10
412.254042
 20
112.107634
 30
0.0
 11
412.254042
 21
112.403814
 31
0.0
210
-1.0
220
-0.0000000000000002
230
-0.0000000000000001
  0
LINE
  5
8A1
330
70
100
AcDbEntity
  8
Visible
100
AcDbLine
 10
422.254042
 20
112.107634
 30
0.0
 11
422.254042
 21
112.403814
 31
0.0
210
-1.0
220
-0.0000000000000002
230
-0.0000000000000001
  0
LINE
  5
8A2
330
70
100
AcDbEntity
  8
Visible
100
AcDbLine
 10
402.2540420000001
 20
112.403814
 30
0.0
 11
402.2540420000001
 21
112.107634
 31
0.0
210
-1.0
220
-0.0000000000000002
230
-0.0000000000000001
  0
LINE
  5
8A3
330
70
100
AcDbEntity
  8
Visible
100
AcDbLine
 10
392.2540420000001
 20
112.403814
 30
0.0
 11
392.2540420000001
 21
112.107634
 31
0.0
210
-1.0
220
-0.0000000000000002
230
-0.0000000000000001
  0
LINE
  5
8A4
330
70
100
AcDbEntity
  8
Visible
100
AcDbLine
 10
412.254042
 20
112.107634
 30
0.0
 11
412.254042
 21
110.099979
 31
0.0
210
-1.0
220
-0.0000000000000002
230
-0.0000000000000001
  0
LINE
  5
8A5
330
70
100
AcDbEntity
  8
Visible
100
AcDbLine
 10
412.254042
 20
112.1250865
 30
0.0
 11
402.2540420000001
 21
112.1250865
 31
0.0
210
-1.0
220
-0.0000000000000002
230
-0.0000000000000001
  0
LINE
  5
8A6
330
70
100
AcDbEntity
  8
Visible
100
AcDbLine
 10
402.2540420000001
 20
110.099979
 30
0.0
 11
402.2540420000001
 21
112.107634
 31
0.0
210
-1.0
220
-0.0000000000000002
230
-0.0000000000000001
  0
LINE
  5
8A7
330
70
100
AcDbEntity
  8
Visible
100
AcDbLine
 10
412.254042
 20
95.97572900000001
 30
0.0
 11
402.2540420000001
 21
95.97572900000001
 31
0.0
210
-1.0
220
-0.0000000000000002
230
-0.0000000000000001
  0
LINE
  5
8A8
330
70
100
AcDbEntity
  8
Visible
100
AcDbLine
 10
412.254042
 20
96.13758150000004
 30
0.0
 11
402.2540420000001
 21
96.13758150000004
 31
0.0
210
-1.0
220
-0.0000000000000002
230
-0.0000000000000001
  0
LINE
  5
8A9
330
70
100
AcDbEntity
  8
Visible
100
AcDbLine
 10
402.2540420000001
 20
94.15363900000002
 30
0.0
 11
402.2540420000001
 21
94.17855150000002
 31
0.0
210
-1.0
220
-0.0000000000000002
230
-0.0000000000000001
  0
LINE
  5
8AA
330
70
100
AcDbEntity
  8
Visible
100
AcDbLine
 10
412.254042
 20
110.721809
 30
0.0
 11
402.2540420000001
 21
110.721809
 31
0.0
210
-1.0
220
-0.0000000000000002
230
-0.0000000000000001
  0
LINE
  5
8AB
330
70
100
AcDbEntity
  8
Visible
100
AcDbLine
 10
412.254042
 20
110.5599565
 30
0.0
 11
402.2540420000001
 21
110.5599565
 31
0.0
210
-1.0
220
-0.0000000000000002
230
-0.0000000000000001
  0
LINE
  5
8AC
330
70
100
AcDbEntity
  8
Visible
100
AcDbLine
 10
402.2540420000001
 20
94.17855150000002
 30
0.0
 11
412.254042
 21
94.17855150000002
 31
0.0
210
-1.0
220
-0.0000000000000002
230
-0.0000000000000001
  0
LINE
  5
8AD
330
70
100
AcDbEntity
  8
Visible
100
AcDbLine
 10
412.254042
 20
94.17855150000002
 30
0.0
 11
412.254042
 21
94.15363900000002
 31
0.0
210
-1.0
220
-0.0000000000000002
230
-0.0000000000000001
  0
LINE
  5
8AE
330
70
100
AcDbEntity
  8
Visible
100
AcDbLine
 10
422.254042
 20
94.2965015
 30
0.0
 11
422.254042
 21
94.15017150000002
 31
0.0
210
-1.0
220
-0.0000000000000002
230
-0.0000000000000001
  0
LINE
  5
8AF
330
70
100
AcDbEntity
  8
Visible
100
AcDbLine
 10
392.2540420000001
 20
94.15017150000002
 30
0.0
 11
392.2540420000001
 21
94.2965015
 31
0.0
210
-1.0
220
-0.0000000000000002
230
-0.0000000000000001
  0
LINE
  5
8B0
330
70
100
AcDbEntity
  8
Visible
100
AcDbLine
 10
422.254042
 20
112.107634
 30
0.0
 11
422.254042
 21
94.59268150000005
 31
0.0
210
-1.0
220
-0.0000000000000002
230
-0.0000000000000001
  0
LINE
  5
8B1
330
70
100
AcDbEntity
  8
Visible
100
AcDbLine
 10
392.2540420000001
 20
94.59268150000005
 30
0.0
 11
392.2540420000001
 21
112.107634
 31
0.0
210
-1.0
220
-0.0000000000000002
230
-0.0000000000000001
  0
LINE
  5
8B2
330
70
100
AcDbEntity
  8
Visible
100
AcDbLine
 10
57.25404200000001
 20
112.150159
 30
0.0
 11
127.254042
 21
112.150159
 31
0.0
210
-1.0
220
-0.0000000000000002
230
-0.0000000000000001
  0
LINE
  5
8B3
330
70
100
AcDbEntity
  8
Visible
100
AcDbLine
 10
137.254042
 20
112.150159
 30
0.0
 11
147.254042
 21
112.150159
 31
0.0
210
-1.0
220
-0.0000000000000002
230
-0.0000000000000001
  0
LINE
  5
8B4
330
70
100
AcDbEntity
  8
Visible
100
AcDbLine
 10
157.254042
 20
112.150159
 30
0.0
 11
392.2540420000001
 21
112.150159
 31
0.0
210
-1.0
220
-0.0000000000000002
230
-0.0000000000000001
  0
LINE
  5
8B5
330
70
100
AcDbEntity
  8
Visible
100
AcDbLine
 10
422.254042
 20
112.150159
 30
0.0
 11
657.2540419999998
 21
112.150159
 31
0.0
210
-1.0
220
-0.0000000000000002
230
-0.0000000000000001
  0
LINE
  5
8B6
330
70
100
AcDbEntity
  8
Visible
100
AcDbLine
 10
667.2540419999998
 20
112.150159
 30
0.0
 11
677.2540419999998
 21
112.150159
 31
0.0
210
-1.0
220
-0.0000000000000002
230
-0.0000000000000001
  0
LINE
  5
8B7
330
70
100
AcDbEntity
  8
Visible
100
AcDbLine
 10
687.2540419999998
 20
112.150159
 30
0.0
 11
757.2540419999998
 21
112.150159
 31
0.0
210
-1.0
220
-0.0000000000000002
230
-0.0000000000000001
  0
LINE
  5
8B8
330
70
100
AcDbEntity
  8
Visible
100
AcDbLine
 10
57.25404200000001
 20
112.150159
 30
0.0
 11
57.25404200000001
 21
111.950159
 31
0.0
210
-1.0
220
-0.0000000000000002
230
-0.0000000000000001
  0
LINE
  5
8B9
330
70
100
AcDbEntity
  8
Visible
100
AcDbLine
 10
757.2540419999998
 20
111.950159
 30
0.0
 11
757.2540419999998
 21
112.150159
 31
0.0
210
-1.0
220
-0.0000000000000002
230
-0.0000000000000001
  0
LINE
  5
8BA
330
70
100
AcDbEntity
  8
Visible
100
AcDbLine
 10
57.25404200000001
 20
111.950159
 30
0.0
 11
57.25404200000001
 21
110.450159
 31
0.0
210
-1.0
220
-0.0000000000000002
230
-0.0000000000000001
  0
LINE
  5
8BB
330
70
100
AcDbEntity
  8
Visible
100
AcDbLine
 10
757.2540419999998
 20
111.950159
 30
0.0
 11
757.2540419999998
 21
110.450159
 31
0.0
210
-1.0
220
-0.0000000000000002
230
-0.0000000000000001
  0
LINE
  5
8BC
330
70
100
AcDbEntity
  8
Visible
100
AcDbLine
 10
57.25404200000001
 20
110.450159
 30
0.0
 11
57.25404200000001
 21
110.150159
 31
0.0
210
-1.0
220
-0.0000000000000002
230
-0.0000000000000001
  0
LINE
  5
8BD
330
70
100
AcDbEntity
  8
Visible
100
AcDbLine
 10
57.25404200000001
 20
110.150159
 30
0.0
 11
127.254042
 21
110.150159
 31
0.0
210
-1.0
220
-0.0000000000000002
230
-0.0000000000000001
  0
LINE
  5
8BE
330
70
100
AcDbEntity
  8
Visible
100
AcDbLine
 10
137.254042
 20
110.150159
 30
0.0
 11
147.254042
 21
110.150159
 31
0.0
210
-1.0
220
-0.0000000000000002
230
-0.0000000000000001
  0
LINE
  5
8BF
330
70
100
AcDbEntity
  8
Visible
100
AcDbLine
 10
157.254042
 20
110.150159
 30
0.0
 11
392.2540420000001
 21
110.150159
 31
0.0
210
-1.0
220
-0.0000000000000002
230
-0.0000000000000001
  0
LINE
  5
8C0
330
70
100
AcDbEntity
  8
Visible
100
AcDbLine
 10
402.2540420000001
 20
110.150159
 30
0.0
 11
412.254042
 21
110.150159
 31
0.0
210
-1.0
220
-0.0000000000000002
230
-0.0000000000000001
  0
LINE
  5
8C1
330
70
100
AcDbEntity
  8
Visible
100
AcDbLine
 10
422.254042
 20
110.150159
 30
0.0
 11
657.2540419999998
 21
110.150159
 31
0.0
210
-1.0
220
-0.0000000000000002
230
-0.0000000000000001
  0
LINE
  5
8C2
330
70
100
AcDbEntity
  8
Visible
100
AcDbLine
 10
667.2540419999998
 20
110.150159
 30
0.0
 11
677.2540419999998
 21
110.150159
 31
0.0
210
-1.0
220
-0.0000000000000002
230
-0.0000000000000001
  0
LINE
  5
8C3
330
70
100
AcDbEntity
  8
Visible
100
AcDbLine
 10
687.2540419999998
 20
110.150159
 30
0.0
 11
757.2540419999998
 21
110.150159
 31
0.0
210
-1.0
220
-0.0000000000000002
230
-0.0000000000000001
  0
LINE
  5
8C4
330
70
100
AcDbEntity
  8
Visible
100
AcDbLine
 10
757.2540419999998
 20
110.150159
 30
0.0
 11
757.2540419999998
 21
110.450159
 31
0.0
210
-1.0
220
-0.0000000000000002
230
-0.0000000000000001
  0
LINE
  5
8C5
330
70
100
AcDbEntity
  8
Visible
100
AcDbLine
 10
57.25404200000001
 20
96.55015899999998
 30
0.0
 11
57.25404200000001
 21
110.150159
 31
0.0
210
-1.0
220
-0.0000000000000002
230
-0.0000000000000001
  0
LINE
  5
8C6
330
70
100
AcDbEntity
  8
Visible
100
AcDbLine
 10
757.2540419999998
 20
110.150159
 30
0.0
 11
757.2540419999998
 21
96.55015899999998
 31
0.0
210
-1.0
220
-0.0000000000000002
230
-0.0000000000000001
  0
LINE
  5
8C7
330
70
100
AcDbEntity
  8
Visible
100
AcDbLine
 10
57.25404200000001
 20
96.55015899999998
 30
0.0
 11
127.254042
 21
96.55015899999998
 31
0.0
210
-1.0
220
-0.0000000000000002
230
-0.0000000000000001
  0
LINE
  5
8C8
330
70
100
AcDbEntity
  8
Visible
100
AcDbLine
 10
157.254042
 20
96.55015899999998
 30
0.0
 11
392.2540420000001
 21
96.55015899999998
 31
0.0
210
-1.0
220
-0.0000000000000002
230
-0.0000000000000001
  0
LINE
  5
8C9
330
70
100
AcDbEntity
  8
Visible
100
AcDbLine
 10
422.254042
 20
96.55015899999998
 30
0.0
 11
657.2540419999998
 21
96.55015899999998
 31
0.0
210
-1.0
220
-0.0000000000000002
230
-0.0000000000000001
  0
LINE
  5
8CA
330
70
100
AcDbEntity
  8
Visible
100
AcDbLine
 10
687.2540419999998
 20
96.55015899999998
 30
0.0
 11
757.2540419999998
 21
96.55015899999998
 31
0.0
210
-1.0
220
-0.0000000000000002
230
-0.0000000000000001
  0
LINE
  5
8CB
330
70
100
AcDbEntity
  8
Visible
100
AcDbLine
 10
57.25404200000001
 20
96.55015899999998
 30
0.0
 11
57.25404200000001
 21
96.25015900000002
 31
0.0
210
-1.0
220
-0.0000000000000002
230
-0.0000000000000001
  0
LINE
  5
8CC
330
70
100
AcDbEntity
  8
Visible
100
AcDbLine
 10
757.2540419999998
 20
96.25015900000002
 30
0.0
 11
757.2540419999998
 21
96.55015899999998
 31
0.0
210
-1.0
220
-0.0000000000000002
230
-0.0000000000000001
  0
LINE
  5
8CD
330
70
100
AcDbEntity
  8
Visible
100
AcDbLine
 10
57.25404200000001
 20
94.750159
 30
0.0
 11
57.25404200000001
 21
96.25015900000002
 31
0.0
210
-1.0
220
-0.0000000000000002
230
-0.0000000000000001
  0
LINE
  5
8CE
330
70
100
AcDbEntity
  8
Visible
100
AcDbLine
 10
757.2540419999998
 20
96.25015900000002
 30
0.0
 11
757.2540419999998
 21
94.750159
 31
0.0
210
-1.0
220
-0.0000000000000002
230
-0.0000000000000001
  0
LINE
  5
8CF
330
70
100
AcDbEntity
  8
Visible
100
AcDbLine
 10
57.25404200000001
 20
94.750159
 30
0.0
 11
57.25404200000001
 21
94.55015900000001
 31
0.0
210
-1.0
220
-0.0000000000000002
230
-0.0000000000000001
  0
LINE
  5
8D0
330
70
100
AcDbEntity
  8
Visible
100
AcDbLine
 10
57.25404200000001
 20
94.55015900000001
 30
0.0
 11
127.254042
 21
94.55015900000001
 31
0.0
210
-1.0
220
-0.0000000000000002
230
-0.0000000000000001
  0
LINE
  5
8D1
330
70
100
AcDbEntity
  8
Visible
100
AcDbLine
 10
137.254042
 20
94.55015900000001
 30
0.0
 11
147.254042
 21
94.55015900000001
 31
0.0
210
-1.0
220
-0.0000000000000002
230
-0.0000000000000001
  0
LINE
  5
8D2
330
70
100
AcDbEntity
  8
Visible
100
AcDbLine
 10
157.254042
 20
94.55015900000001
 30
0.0
 11
392.2540420000001
 21
94.55015900000001
 31
0.0
210
-1.0
220
-0.0000000000000002
230
-0.0000000000000001
  0
LINE
  5
8D3
330
70
100
AcDbEntity
  8
Visible
100
AcDbLine
 10
422.254042
 20
94.55015900000001
 30
0.0
 11
657.2540419999998
 21
94.55015900000001
 31
0.0
210
-1.0
220
-0.0000000000000002
230
-0.0000000000000001
  0
LINE
  5
8D4
330
70
100
AcDbEntity
  8
Visible
100
AcDbLine
 10
667.2540419999998
 20
94.55015900000001
 30
0.0
 11
677.2540419999998
 21
94.55015900000001
 31
0.0
210
-1.0
220
-0.0000000000000002
230
-0.0000000000000001
  0
LINE
  5
8D5
330
70
100
AcDbEntity
  8
Visible
100
AcDbLine
 10
687.2540419999998
 20
94.55015900000001
 30
0.0
 11
757.2540419999998
 21
94.55015900000001
 31
0.0
210
-1.0
220
-0.0000000000000002
230
-0.0000000000000001
  0
LINE
  5
8D6
330
70
100
AcDbEntity
  8
Visible
100
AcDbLine
 10
757.2540419999998
 20
94.55015900000001
 30
0.0
 11
757.2540419999998
 21
94.750159
 31
0.0
210
-1.0
220
-0.0000000000000002
230
-0.0000000000000001
  0
LINE
  5
8D7
330
70
100
AcDbEntity
  8
Visible
100
AcDbLine
 10
39.31173700000001
 20
372.0602665
 30
0.0
 11
39.31173700000001
 21
371.5602665000001
 31
0.0
210
-1.0
220
-0.0000000000000002
230
0.0000000000000001
  0
LINE
  5
8D8
330
70
100
AcDbEntity
  8
Visible
100
AcDbLine
 10
39.31173700000001
 20
371.5602665000001
 30
0.0
 11
39.31173700000001
 21
354.9602665
 31
0.0
210
-1.0
220
-0.0000000000000002
230
0.0000000000000001
  0
LINE
  5
8D9
330
70
100
AcDbEntity
  8
Visible
100
AcDbLine
 10
39.31173700000001
 20
354.9602665
 30
0.0
 11
39.31173700000001
 21
354.4602665000001
 31
0.0
210
-1.0
220
-0.0000000000000002
230
0.0000000000000001
  0
LINE
  5
8DA
330
70
100
AcDbEntity
  8
Visible
100
AcDbLine
 10
53.31173699999999
 20
370.7602665
 30
0.0
 11
54.31173700000001
 21
370.7602665
 31
0.0
210
-1.0
220
-0.0000000000000002
230
0.0000000000000001
  0
LINE
  5
8DB
330
70
100
AcDbEntity
  8
Visible
100
AcDbLine
 10
54.31173700000001
 20
369.7602664999999
 30
0.0
 11
53.31173699999999
 21
369.7602664999999
 31
0.0
210
-1.0
220
-0.0000000000000002
230
0.0000000000000001
  0
LINE
  5
8DC
330
70
100
AcDbEntity
  8
Visible
100
AcDbLine
 10
54.31173700000001
 20
369.7602664999999
 30
0.0
 11
54.31173700000001
 21
370.7602665
 31
0.0
210
-1.0
220
-0.0000000000000002
230
0.0000000000000001
  0
LINE
  5
8DD
330
70
100
AcDbEntity
  8
Visible
100
AcDbLine
 10
39.31173700000001
 20
369.7602664999999
 30
0.0
 11
53.31173699999999
 21
369.7602664999999
 31
0.0
210
-1.0
220
-0.0000000000000002
230
0.0000000000000001
  0
LINE
  5
8DE
330
70
100
AcDbEntity
  8
Visible
100
AcDbLine
 10
53.31173699999999
 20
370.7602665
 30
0.0
 11
39.31173700000001
 21
370.7602665
 31
0.0
210
-1.0
220
-0.0000000000000002
230
0.0000000000000001
  0
LINE
  5
8DF
330
70
100
AcDbEntity
  8
Visible
100
AcDbLine
 10
54.31173700000001
 20
355.7602665
 30
0.0
 11
53.31173699999999
 21
355.7602665
 31
0.0
210
-1.0
220
-0.0000000000000002
230
0.0000000000000001
  0
LINE
  5
8E0
330
70
100
AcDbEntity
  8
Visible
100
AcDbLine
 10
54.31173700000001
 20
355.7602665
 30
0.0
 11
54.31173700000001
 21
356.7602665000001
 31
0.0
210
-1.0
220
-0.0000000000000002
230
0.0000000000000001
  0
LINE
  5
8E1
330
70
100
AcDbEntity
  8
Visible
100
AcDbLine
 10
53.31173699999999
 20
356.7602665000001
 30
0.0
 11
54.31173700000001
 21
356.7602665000001
 31
0.0
210
-1.0
220
-0.0000000000000002
230
0.0000000000000001
  0
LINE
  5
8E2
330
70
100
AcDbEntity
  8
Visible
100
AcDbLine
 10
39.31173700000001
 20
355.7602665
 30
0.0
 11
53.31173699999999
 21
355.7602665
 31
0.0
210
-1.0
220
-0.0000000000000002
230
0.0000000000000001
  0
LINE
  5
8E3
330
70
100
AcDbEntity
  8
Visible
100
AcDbLine
 10
53.31173699999999
 20
356.7602665000001
 30
0.0
 11
39.31173700000001
 21
356.7602665000001
 31
0.0
210
-1.0
220
-0.0000000000000002
230
0.0000000000000001
  0
LINE
  5
8E4
330
70
100
AcDbEntity
  8
Visible
100
AcDbLine
 10
54.31173700000001
 20
369.7602664999999
 30
0.0
 11
54.31173700000001
 21
356.7602665000001
 31
0.0
210
-1.0
220
-0.0000000000000002
230
0.0000000000000001
  0
LINE
  5
8E5
330
70
100
AcDbEntity
  8
Visible
100
AcDbLine
 10
38.11173700000001
 20
354.4602665000001
 30
0.0
 11
38.11173700000001
 21
354.9602665
 31
0.0
210
-1.0
220
-0.0000000000000002
230
0.0000000000000001
  0
LINE
  5
8E6
330
70
100
AcDbEntity
  8
Visible
100
AcDbLine
 10
38.11173700000001
 20
354.4602665000001
 30
0.0
 11
39.31173700000001
 21
354.4602665000001
 31
0.0
210
-1.0
220
-0.0000000000000002
230
0.0000000000000001
  0
LINE
  5
8E7
330
70
100
AcDbEntity
  8
Visible
100
AcDbLine
 10
38.11173700000001
 20
371.5602665000001
 30
0.0
 11
38.11173700000001
 21
354.9602665
 31
0.0
210
-1.0
220
-0.0000000000000002
230
0.0000000000000001
  0
LINE
  5
8E8
330
70
100
AcDbEntity
  8
Visible
100
AcDbLine
 10
38.11173700000001
 20
371.5602665000001
 30
0.0
 11
38.11173700000001
 21
372.0602665
 31
0.0
210
-1.0
220
-0.0000000000000002
230
0.0000000000000001
  0
LINE
  5
8E9
330
70
100
AcDbEntity
  8
Visible
100
AcDbLine
 10
39.31173700000001
 20
372.0602665
 30
0.0
 11
38.11173700000001
 21
372.0602665
 31
0.0
210
-1.0
220
-0.0000000000000002
230
0.0000000000000001
  0
LINE
  5
8EA
330
70
100
AcDbEntity
  8
Visible
100
AcDbLine
 10
761.2540419999999
 20
355.7602665
 30
0.0
 11
760.254042
 21
355.7602665
 31
0.0
210
-1.0
220
-0.0000000000000002
230
0.0000000000000001
  0
LINE
  5
8EB
330
70
100
AcDbEntity
  8
Visible
100
AcDbLine
 10
760.254042
 20
356.7602665000001
 30
0.0
 11
761.2540419999999
 21
356.7602665000001
 31
0.0
210
-1.0
220
-0.0000000000000002
230
0.0000000000000001
  0
LINE
  5
8EC
330
70
100
AcDbEntity
  8
Visible
100
AcDbLine
 10
760.254042
 20
356.7602665000001
 30
0.0
 11
760.254042
 21
355.7602665
 31
0.0
210
-1.0
220
-0.0000000000000002
230
0.0000000000000001
  0
LINE
  5
8ED
330
70
100
AcDbEntity
  8
Visible
100
AcDbLine
 10
775.254042
 20
356.7602665000001
 30
0.0
 11
761.2540419999999
 21
356.7602665000001
 31
0.0
210
-1.0
220
-0.0000000000000002
230
0.0000000000000001
  0
LINE
  5
8EE
330
70
100
AcDbEntity
  8
Visible
100
AcDbLine
 10
761.2540419999999
 20
355.7602665
 30
0.0
 11
775.254042
 21
355.7602665
 31
0.0
210
-1.0
220
-0.0000000000000002
230
0.0000000000000001
  0
LINE
  5
8EF
330
70
100
AcDbEntity
  8
Visible
100
AcDbLine
 10
760.254042
 20
370.7602665
 30
0.0
 11
761.2540419999999
 21
370.7602665
 31
0.0
210
-1.0
220
-0.0000000000000002
230
0.0000000000000001
  0
LINE
  5
8F0
330
70
100
AcDbEntity
  8
Visible
100
AcDbLine
 10
760.254042
 20
370.7602665
 30
0.0
 11
760.254042
 21
369.7602664999999
 31
0.0
210
-1.0
220
-0.0000000000000002
230
0.0000000000000001
  0
LINE
  5
8F1
330
70
100
AcDbEntity
  8
Visible
100
AcDbLine
 10
761.2540419999999
 20
369.7602664999999
 30
0.0
 11
760.254042
 21
369.7602664999999
 31
0.0
210
-1.0
220
-0.0000000000000002
230
0.0000000000000001
  0
LINE
  5
8F2
330
70
100
AcDbEntity
  8
Visible
100
AcDbLine
 10
775.254042
 20
370.7602665
 30
0.0
 11
761.2540419999999
 21
370.7602665
 31
0.0
210
-1.0
220
-0.0000000000000002
230
0.0000000000000001
  0
LINE
  5
8F3
330
70
100
AcDbEntity
  8
Visible
100
AcDbLine
 10
761.2540419999999
 20
369.7602664999999
 30
0.0
 11
775.254042
 21
369.7602664999999
 31
0.0
210
-1.0
220
-0.0000000000000002
230
0.0000000000000001
  0
LINE
  5
8F4
330
70
100
AcDbEntity
  8
Visible
100
AcDbLine
 10
760.254042
 20
356.7602665000001
 30
0.0
 11
760.254042
 21
369.7602664999999
 31
0.0
210
-1.0
220
-0.0000000000000002
230
0.0000000000000001
  0
LINE
  5
8F5
330
70
100
AcDbEntity
  8
Visible
100
AcDbLine
 10
775.254042
 20
354.4602665000001
 30
0.0
 11
775.254042
 21
354.9602665
 31
0.0
210
-1.0
220
-0.0000000000000002
230
0.0000000000000001
  0
LINE
  5
8F6
330
70
100
AcDbEntity
  8
Visible
100
AcDbLine
 10
775.254042
 20
354.9602665
 30
0.0
 11
775.254042
 21
371.5602665000001
 31
0.0
210
-1.0
220
-0.0000000000000002
230
0.0000000000000001
  0
LINE
  5
8F7
330
70
100
AcDbEntity
  8
Visible
100
AcDbLine
 10
775.254042
 20
371.5602665000001
 30
0.0
 11
775.254042
 21
372.0602665
 31
0.0
210
-1.0
220
-0.0000000000000002
230
0.0000000000000001
  0
LINE
  5
8F8
330
70
100
AcDbEntity
  8
Visible
100
AcDbLine
 10
776.4540419999998
 20
372.0602665
 30
0.0
 11
776.4540419999998
 21
371.5602665000001
 31
0.0
210
-1.0
220
-0.0000000000000002
230
0.0000000000000001
  0
LINE
  5
8F9
330
70
100
AcDbEntity
  8
Visible
100
AcDbLine
 10
776.4540419999998
 20
372.0602665
 30
0.0
 11
775.254042
 21
372.0602665
 31
0.0
210
-1.0
220
-0.0000000000000002
230
0.0000000000000001
  0
LINE
  5
8FA
330
70
100
AcDbEntity
  8
Visible
100
AcDbLine
 10
776.4540419999998
 20
354.9602665
 30
0.0
 11
776.4540419999998
 21
371.5602665000001
 31
0.0
210
-1.0
220
-0.0000000000000002
230
0.0000000000000001
  0
LINE
  5
8FB
330
70
100
AcDbEntity
  8
Visible
100
AcDbLine
 10
776.4540419999998
 20
354.9602665
 30
0.0
 11
776.4540419999998
 21
354.4602665000001
 31
0.0
210
-1.0
220
-0.0000000000000002
230
0.0000000000000001
  0
LINE
  5
8FC
330
70
100
AcDbEntity
  8
Visible
100
AcDbLine
 10
775.254042
 20
354.4602665000001
 30
0.0
 11
776.4540419999998
 21
354.4602665000001
 31
0.0
210
-1.0
220
-0.0000000000000002
230
0.0000000000000001
  0
ELLIPSE
  5
8FD
330
70
100
AcDbEntity
  8
Visible
100
AcDbEllipse
 10
154.254042
 20
354.0602765
 30
0.0
 11
3.000000000000004
 21
0.0000000000002993
 31
0.0
210
0.0
220
0.0
230
1.0
 40
0.0124990235516028
 41
-1.570796326784701
 42
-0.0000000000079814
  0
LINE
  5
8FE
330
70
100
AcDbEntity
  8
Visible
100
AcDbLine
 10
157.254042
 20
354.0602765
 30
0.0
 11
157.254042
 21
354.3602540000001
 31
0.0
210
-1.0
220
-0.0000000000000002
230
0.0000000000000001
  0
ELLIPSE
  5
8FF
330
70
100
AcDbEntity
  8
Visible
100
AcDbEllipse
 10
154.254042
 20
354.3602540000001
 30
0.0
 11
2.99999999999997
 21
0.0000000000007855
 31
0.0
210
0.0
220
0.0
230
-1.0
 40
0.012499023551224
 41
0.0000000000209401
 42
1.570796326785094
  0
LINE
  5
900
330
70
100
AcDbEntity
  8
Visible
100
AcDbLine
 10
130.254042
 20
354.0227815000001
 30
0.0
 11
154.254042
 21
354.0227815000001
 31
0.0
210
-1.0
220
-0.0000000000000002
230
0.0000000000000001
  0
ELLIPSE
  5
901
330
70
100
AcDbEntity
  8
Visible
100
AcDbEllipse
 10
130.254042
 20
354.0602765
 30
0.0
 11
-3.000000000000042
 21
0.000000000000254
 31
0.0
210
0.0
220
0.0
230
1.0
 40
0.0124990235516026
 41
0.0000000000067637
 42
1.570796326783469
  0
LINE
  5
902
330
70
100
AcDbEntity
  8
Visible
100
AcDbLine
 10
130.254042
 20
354.3227565
 30
0.0
 11
154.254042
 21
354.3227565
 31
0.0
210
-1.0
220
-0.0000000000000002
230
0.0000000000000001
  0
ELLIPSE
  5
903
330
70
100
AcDbEntity
  8
Visible
100
AcDbEllipse
 10
154.254042
 20
372.460254
 30
0.0
 11
-3.000000000000042
 21
0.0000000000013165
 31
0.0
210
0.0
220
0.0
230
1.0
 40
0.0124990235519816
 41
3.141592653624881
 42
4.712388980371278
  0
ELLIPSE
  5
904
330
70
100
AcDbEntity
  8
Visible
100
AcDbEllipse
 10
154.254042
 20
372.1602765000001
 30
0.0
 11
3.000000000000042
 21
0.000000000000266
 31
0.0
210
0.0
220
0.0
230
-1.0
 40
0.0124990235519816
 41
-1.57079632678214
 42
0.0000000000070834
  0
LINE
  5
905
330
70
100
AcDbEntity
  8
Visible
100
AcDbLine
 10
157.254042
 20
372.1602765000001
 30
0.0
 11
157.254042
 21
372.460254
 31
0.0
210
-1.0
220
-0.0000000000000002
230
0.0000000000000001
  0
LINE
  5
906
330
70
100
AcDbEntity
  8
Visible
100
AcDbLine
 10
130.254042
 20
372.1977740000001
 30
0.0
 11
154.254042
 21
372.1977740000001
 31
0.0
210
-1.0
220
-0.0000000000000002
230
0.0000000000000001
  0
ELLIPSE
  5
907
330
70
100
AcDbEntity
  8
Visible
100
AcDbEllipse
 10
130.254042
 20
372.1602765000001
 30
0.0
 11
-3.000000000000004
 21
0.0000000000003133
 31
0.0
210
0.0
220
0.0
230
-1.0
 40
0.0124990235519817
 41
-0.0000000000083544
 42
1.570796326780909
  0
LINE
  5
908
330
70
100
AcDbEntity
  8
Visible
100
AcDbLine
 10
127.254042
 20
372.1602765000001
 30
0.0
 11
127.254042
 21
372.0602665
 31
0.0
210
-1.0
220
-0.0000000000000002
230
0.0000000000000001
  0
LINE
  5
909
330
70
100
AcDbEntity
  8
Visible
100
AcDbLine
 10
157.254042
 20
372.1602765000001
 30
0.0
 11
157.254042
 21
372.0602665
 31
0.0
210
-1.0
220
-0.0000000000000002
230
0.0000000000000001
  0
LINE
  5
90A
330
70
100
AcDbEntity
  8
Visible
100
AcDbLine
 10
137.254042
 20
372.1568065
 30
0.0
 11
147.254042
 21
372.1568065
 31
0.0
210
-1.0
220
-0.0000000000000002
230
0.0000000000000001
  0
LINE
  5
90B
330
70
100
AcDbEntity
  8
Visible
100
AcDbLine
 10
130.254042
 20
372.4977515
 30
0.0
 11
154.254042
 21
372.4977515
 31
0.0
210
-1.0
220
-0.0000000000000002
230
0.0000000000000001
  0
ELLIPSE
  5
90C
330
70
100
AcDbEntity
  8
Visible
100
AcDbEllipse
 10
130.254042
 20
354.3602540000001
 30
0.0
 11
-2.99999999999997
 21
0.0000000000007443
 31
0.0
210
0.0
220
0.0
230
-1.0
 40
0.012499023551224
 41
-1.570796326784004
 42
-0.0000000000198483
  0
LINE
  5
90D
330
70
100
AcDbEntity
  8
Visible
100
AcDbLine
 10
127.254042
 20
354.3602540000001
 30
0.0
 11
127.254042
 21
354.0602765
 31
0.0
210
-1.0
220
-0.0000000000000002
230
0.0000000000000001
  0
ELLIPSE
  5
90E
330
70
100
AcDbEntity
  8
Visible
100
AcDbEllipse
 10
130.254042
 20
372.460254
 30
0.0
 11
3.000000000000004
 21
0.0000000000012645
 31
0.0
210
0.0
220
0.0
230
1.0
 40
0.0124990235519817
 41
1.57079632680967
 42
3.141592653556095
  0
LINE
  5
90F
330
70
100
AcDbEntity
  8
Visible
100
AcDbLine
 10
127.254042
 20
372.460254
 30
0.0
 11
127.254042
 21
372.1602765000001
 31
0.0
210
-1.0
220
-0.0000000000000002
230
0.0000000000000001
  0
LINE
  5
910
330
70
100
AcDbEntity
  8
Visible
100
AcDbLine
 10
147.254042
 20
372.1568065
 30
0.0
 11
147.254042
 21
372.0602665
 31
0.0
210
-1.0
220
-0.0000000000000002
230
0.0000000000000001
  0
LINE
  5
911
330
70
100
AcDbEntity
  8
Visible
100
AcDbLine
 10
137.254042
 20
372.0602665
 30
0.0
 11
137.254042
 21
372.1568065
 31
0.0
210
-1.0
220
-0.0000000000000002
230
0.0000000000000001
  0
LINE
  5
912
330
70
100
AcDbEntity
  8
Visible
100
AcDbLine
 10
137.254042
 20
354.3665040000001
 30
0.0
 11
137.254042
 21
354.4602665000001
 31
0.0
210
-1.0
220
-0.0000000000000002
230
0.0000000000000001
  0
LINE
  5
913
330
70
100
AcDbEntity
  8
Visible
100
AcDbLine
 10
147.254042
 20
354.3665040000001
 30
0.0
 11
147.254042
 21
354.4602665000001
 31
0.0
210
-1.0
220
-0.0000000000000002
230
0.0000000000000001
  0
LINE
  5
914
330
70
100
AcDbEntity
  8
Visible
100
AcDbLine
 10
147.254042
 20
354.3665040000001
 30
0.0
 11
137.254042
 21
354.3665040000001
 31
0.0
210
-1.0
220
-0.0000000000000002
230
0.0000000000000001
  0
LINE
  5
915
330
70
100
AcDbEntity
  8
Visible
100
AcDbLine
 10
157.254042
 20
354.4602665000001
 30
0.0
 11
157.254042
 21
354.3602540000001
 31
0.0
210
-1.0
220
-0.0000000000000002
230
0.0000000000000001
  0
LINE
  5
916
330
70
100
AcDbEntity
  8
Visible
100
AcDbLine
 10
127.254042
 20
354.3602540000001
 30
0.0
 11
127.254042
 21
354.4602665000001
 31
0.0
210
-1.0
220
-0.0000000000000002
230
0.0000000000000001
  0
ELLIPSE
  5
917
330
70
100
AcDbEntity
  8
Visible
100
AcDbEllipse
 10
684.2540419999998
 20
354.0602765
 30
0.0
 11
2.99999999999997
 21
0.000000000000298
 31
0.0
210
0.0
220
0.0
230
1.0
 40
0.0124990235516029
 41
-1.570796326784713
 42
-0.0000000000079459
  0
LINE
  5
918
330
70
100
AcDbEntity
  8
Visible
100
AcDbLine
 10
687.2540419999998
 20
354.0602765
 30
0.0
 11
687.2540419999998
 21
354.3602540000001
 31
0.0
210
-1.0
220
-0.0000000000000002
230
0.0000000000000001
  0
ELLIPSE
  5
919
330
70
100
AcDbEntity
  8
Visible
100
AcDbEllipse
 10
684.2540419999998
 20
354.3602540000001
 30
0.0
 11
2.99999999999997
 21
0.0000000000007843
 31
0.0
210
0.0
220
0.0
230
-1.0
 40
0.012499023551224
 41
0.0000000000209046
 42
1.570796326785094
  0
LINE
  5
91A
330
70
100
AcDbEntity
  8
Visible
100
AcDbLine
 10
660.254042
 20
354.0227815000001
 30
0.0
 11
684.2540419999998
 21
354.0227815000001
 31
0.0
210
-1.0
220
-0.0000000000000002
230
0.0000000000000001
  0
ELLIPSE
  5
91B
330
70
100
AcDbEntity
  8
Visible
100
AcDbEllipse
 10
660.254042
 20
354.0602765
 30
0.0
 11
-2.99999999999997
 21
0.0000000000002528
 31
0.0
210
0.0
220
0.0
230
1.0
 40
0.0124990235516029
 41
0.0000000000067282
 42
1.57079632678348
  0
LINE
  5
91C
330
70
100
AcDbEntity
  8
Visible
100
AcDbLine
 10
660.254042
 20
354.3227565
 30
0.0
 11
684.2540419999998
 21
354.3227565
 31
0.0
210
-1.0
220
-0.0000000000000002
230
0.0000000000000001
  0
ELLIPSE
  5
91D
330
70
100
AcDbEntity
  8
Visible
100
AcDbEllipse
 10
684.2540419999998
 20
372.460254
 30
0.0
 11
-2.99999999999997
 21
0.0000000000013173
 31
0.0
210
0.0
220
0.0
230
1.0
 40
0.0124990235519819
 41
3.141592653624881
 42
4.712388980371288
  0
ELLIPSE
  5
91E
330
70
100
AcDbEntity
  8
Visible
100
AcDbEllipse
 10
684.2540419999998
 20
372.1602765000001
 30
0.0
 11
2.99999999999997
 21
0.000000000000266
 31
0.0
210
0.0
220
0.0
230
-1.0
 40
0.0124990235519819
 41
-1.5707963267822
 42
0.0000000000070834
  0
LINE
  5
91F
330
70
100
AcDbEntity
  8
Visible
100
AcDbLine
 10
687.2540419999998
 20
372.1602765000001
 30
0.0
 11
687.2540419999998
 21
372.460254
 31
0.0
210
-1.0
220
-0.0000000000000002
230
0.0000000000000001
  0
LINE
  5
920
330
70
100
AcDbEntity
  8
Visible
100
AcDbLine
 10
660.254042
 20
372.1977740000001
 30
0.0
 11
684.2540419999998
 21
372.1977740000001
 31
0.0
210
-1.0
220
-0.0000000000000002
230
0.0000000000000001
  0
ELLIPSE
  5
921
330
70
100
AcDbEntity
  8
Visible
100
AcDbEllipse
 10
660.254042
 20
372.1602765000001
 30
0.0
 11
-2.99999999999997
 21
0.0000000000003133
 31
0.0
210
0.0
220
0.0
230
-1.0
 40
0.0124990235519819
 41
-0.0000000000083544
 42
1.57079632678092
  0
LINE
  5
922
330
70
100
AcDbEntity
  8
Visible
100
AcDbLine
 10
657.2540419999998
 20
372.1602765000001
 30
0.0
 11
657.2540419999998
 21
372.0602665
 31
0.0
210
-1.0
220
-0.0000000000000002
230
0.0000000000000001
  0
LINE
  5
923
330
70
100
AcDbEntity
  8
Visible
100
AcDbLine
 10
687.2540419999998
 20
372.1602765000001
 30
0.0
 11
687.2540419999998
 21
372.0602665
 31
0.0
210
-1.0
220
-0.0000000000000002
230
0.0000000000000001
  0
LINE
  5
924
330
70
100
AcDbEntity
  8
Visible
100
AcDbLine
 10
667.2540419999998
 20
372.1568065
 30
0.0
 11
677.2540419999998
 21
372.1568065
 31
0.0
210
-1.0
220
-0.0000000000000002
230
0.0000000000000001
  0
LINE
  5
925
330
70
100
AcDbEntity
  8
Visible
100
AcDbLine
 10
660.254042
 20
372.4977515
 30
0.0
 11
684.2540419999998
 21
372.4977515
 31
0.0
210
-1.0
220
-0.0000000000000002
230
0.0000000000000001
  0
ELLIPSE
  5
926
330
70
100
AcDbEntity
  8
Visible
100
AcDbEllipse
 10
660.254042
 20
354.3602540000001
 30
0.0
 11
-2.99999999999997
 21
0.0000000000007463
 31
0.0
210
0.0
220
0.0
230
-1.0
 40
0.012499023551224
 41
-1.570796326784051
 42
-0.0000000000199016
  0
LINE
  5
927
330
70
100
AcDbEntity
  8
Visible
100
AcDbLine
 10
657.2540419999998
 20
354.3602540000001
 30
0.0
 11
657.2540419999998
 21
354.0602765
 31
0.0
210
-1.0
220
-0.0000000000000002
230
0.0000000000000001
  0
ELLIPSE
  5
928
330
70
100
AcDbEntity
  8
Visible
100
AcDbEllipse
 10
660.254042
 20
372.460254
 30
0.0
 11
2.99999999999997
 21
0.0000000000012645
 31
0.0
210
0.0
220
0.0
230
1.0
 40
0.0124990235519819
 41
1.57079632680967
 42
3.141592653556095
  0
LINE
  5
929
330
70
100
AcDbEntity
  8
Visible
100
AcDbLine
 10
657.2540419999998
 20
372.460254
 30
0.0
 11
657.2540419999998
 21
372.1602765000001
 31
0.0
210
-1.0
220
-0.0000000000000002
230
0.0000000000000001
  0
LINE
  5
92A
330
70
100
AcDbEntity
  8
Visible
100
AcDbLine
 10
677.2540419999998
 20
372.1568065
 30
0.0
 11
677.2540419999998
 21
372.0602665
 31
0.0
210
-1.0
220
-0.0000000000000002
230
0.0000000000000001
  0
LINE
  5
92B
330
70
100
AcDbEntity
  8
Visible
100
AcDbLine
 10
667.2540419999998
 20
372.0602665
 30
0.0
 11
667.2540419999998
 21
372.1568065
 31
0.0
210
-1.0
220
-0.0000000000000002
230
0.0000000000000001
  0
LINE
  5
92C
330
70
100
AcDbEntity
  8
Visible
100
AcDbLine
 10
667.2540419999998
 20
354.3665040000001
 30
0.0
 11
667.2540419999998
 21
354.4602665000001
 31
0.0
210
-1.0
220
-0.0000000000000002
230
0.0000000000000001
  0
LINE
  5
92D
330
70
100
AcDbEntity
  8
Visible
100
AcDbLine
 10
677.2540419999998
 20
354.3665040000001
 30
0.0
 11
677.2540419999998
 21
354.4602665000001
 31
0.0
210
-1.0
220
-0.0000000000000002
230
0.0000000000000001
  0
LINE
  5
92E
330
70
100
AcDbEntity
  8
Visible
100
AcDbLine
 10
677.2540419999998
 20
354.3665040000001
 30
0.0
 11
667.2540419999998
 21
354.3665040000001
 31
0.0
210
-1.0
220
-0.0000000000000002
230
0.0000000000000001
  0
LINE
  5
92F
330
70
100
AcDbEntity
  8
Visible
100
AcDbLine
 10
687.2540419999998
 20
354.4602665000001
 30
0.0
 11
687.2540419999998
 21
354.3602540000001
 31
0.0
210
-1.0
220
-0.0000000000000002
230
0.0000000000000001
  0
LINE
  5
930
330
70
100
AcDbEntity
  8
Visible
100
AcDbLine
 10
657.2540419999998
 20
354.3602540000001
 30
0.0
 11
657.2540419999998
 21
354.4602665000001
 31
0.0
210
-1.0
220
-0.0000000000000002
230
0.0000000000000001
  0
ELLIPSE
  5
931
330
70
100
AcDbEntity
  8
Visible
100
AcDbEllipse
 10
419.254042
 20
354.0602765
 30
0.0
 11
3.000000000000042
 21
0.000000000001908
 31
0.0
210
0.0
220
0.0
230
1.0
 40
0.0124990235516026
 41
-1.570796326784718
 42
-0.0000000000508837
  0
LINE
  5
932
330
70
100
AcDbEntity
  8
Visible
100
AcDbLine
 10
422.254042
 20
354.0602765
 30
0.0
 11
422.254042
 21
354.3602540000001
 31
0.0
210
-1.0
220
-0.0000000000000002
230
0.0000000000000001
  0
ELLIPSE
  5
933
330
70
100
AcDbEntity
  8
Visible
100
AcDbEllipse
 10
419.254042
 20
354.3602540000001
 30
0.0
 11
2.99999999999997
 21
0.0000000000019228
 31
0.0
210
0.0
220
0.0
230
-1.0
 40
0.0124990235516029
 41
0.0000000000512648
 42
1.570796326785123
  0
LINE
  5
934
330
70
100
AcDbEntity
  8
Visible
100
AcDbLine
 10
395.254042
 20
354.0227815000001
 30
0.0
 11
419.254042
 21
354.0227815000001
 31
0.0
210
-1.0
220
-0.0000000000000002
230
0.0000000000000001
  0
ELLIPSE
  5
935
330
70
100
AcDbEntity
  8
Visible
100
AcDbEllipse
 10
395.254042
 20
354.0602765
 30
0.0
 11
-3.000000000000042
 21
0.000000000001862
 31
0.0
210
0.0
220
0.0
230
1.0
 40
0.0124990235516026
 41
0.0000000000496483
 42
1.570796326783488
  0
LINE
  5
936
330
70
100
AcDbEntity
  8
Visible
100
AcDbLine
 10
395.254042
 20
354.3227565
 30
0.0
 11
419.254042
 21
354.3227565
 31
0.0
210
-1.0
220
-0.0000000000000002
230
0.0000000000000001
  0
ELLIPSE
  5
937
330
70
100
AcDbEntity
  8
Visible
100
AcDbEllipse
 10
419.254042
 20
372.460254
 30
0.0
 11
3.000000000000042
 21
0.0000000000002913
 31
0.0
210
0.0
220
0.0
230
1.0
 40
0.0124990235519816
 41
-0.00000000000777
 42
1.570796326781465
  0
ELLIPSE
  5
938
330
70
100
AcDbEntity
  8
Visible
100
AcDbEllipse
 10
419.254042
 20
372.1602765000001
 30
0.0
 11
3.000000000000042
 21
0.000000000000266
 31
0.0
210
0.0
220
0.0
230
-1.0
 40
0.0124990235519816
 41
-1.570796326782151
 42
0.0000000000070834
  0
LINE
  5
939
330
70
100
AcDbEntity
  8
Visible
100
AcDbLine
 10
422.254042
 20
372.1602765000001
 30
0.0
 11
422.254042
 21
372.460254
 31
0.0
210
-1.0
220
-0.0000000000000002
230
0.0000000000000001
  0
LINE
  5
93A
330
70
100
AcDbEntity
  8
Visible
100
AcDbLine
 10
395.254042
 20
372.1977740000001
 30
0.0
 11
419.254042
 21
372.1977740000001
 31
0.0
210
-1.0
220
-0.0000000000000002
230
0.0000000000000001
  0
ELLIPSE
  5
93B
330
70
100
AcDbEntity
  8
Visible
100
AcDbEllipse
 10
395.254042
 20
372.1602765000001
 30
0.0
 11
-3.000000000000042
 21
0.0000000000003125
 31
0.0
210
0.0
220
0.0
230
-1.0
 40
0.0124990235519816
 41
-0.0000000000083367
 42
1.57079632678092
  0
LINE
  5
93C
330
70
100
AcDbEntity
  8
Visible
100
AcDbLine
 10
392.2540420000001
 20
372.1602765000001
 30
0.0
 11
392.2540420000001
 21
372.0602665
 31
0.0
210
-1.0
220
-0.0000000000000002
230
0.0000000000000001
  0
LINE
  5
93D
330
70
100
AcDbEntity
  8
Visible
100
AcDbLine
 10
422.254042
 20
372.1602765000001
 30
0.0
 11
422.254042
 21
372.0602665
 31
0.0
210
-1.0
220
-0.0000000000000002
230
0.0000000000000001
  0
LINE
  5
93E
330
70
100
AcDbEntity
  8
Visible
100
AcDbLine
 10
402.2540420000001
 20
372.1568065
 30
0.0
 11
412.254042
 21
372.1568065
 31
0.0
210
-1.0
220
-0.0000000000000002
230
0.0000000000000001
  0
LINE
  5
93F
330
70
100
AcDbEntity
  8
Visible
100
AcDbLine
 10
395.254042
 20
372.4977515
 30
0.0
 11
419.254042
 21
372.4977515
 31
0.0
210
-1.0
220
-0.0000000000000002
230
0.0000000000000001
  0
ELLIPSE
  5
940
330
70
100
AcDbEntity
  8
Visible
100
AcDbEllipse
 10
395.254042
 20
354.3602540000001
 30
0.0
 11
-3.000000000000042
 21
0.000000000001882
 31
0.0
210
0.0
220
0.0
230
-1.0
 40
0.0124990235516026
 41
-1.570796326784009
 42
-0.0000000000501907
  0
LINE
  5
941
330
70
100
AcDbEntity
  8
Visible
100
AcDbLine
 10
392.2540420000001
 20
354.3602540000001
 30
0.0
 11
392.2540420000001
 21
354.0602765
 31
0.0
210
-1.0
220
-0.0000000000000002
230
0.0000000000000001
  0
ELLIPSE
  5
942
330
70
100
AcDbEntity
  8
Visible
100
AcDbEllipse
 10
395.254042
 20
372.460254
 30
0.0
 11
-2.99999999999997
 21
0.0000000000003425
 31
0.0
210
0.0
220
0.0
230
1.0
 40
0.0124990235519819
 41
-1.570796326780115
 42
0.0000000000091263
  0
LINE
  5
943
330
70
100
AcDbEntity
  8
Visible
100
AcDbLine
 10
392.2540420000001
 20
372.460254
 30
0.0
 11
392.2540420000001
 21
372.1602765000001
 31
0.0
210
-1.0
220
-0.0000000000000002
230
0.0000000000000001
  0
LINE
  5
944
330
70
100
AcDbEntity
  8
Visible
100
AcDbLine
 10
412.254042
 20
372.1568065
 30
0.0
 11
412.254042
 21
372.0602665
 31
0.0
210
-1.0
220
-0.0000000000000002
230
0.0000000000000001
  0
LINE
  5
945
330
70
100
AcDbEntity
  8
Visible
100
AcDbLine
 10
402.2540420000001
 20
372.0602665
 30
0.0
 11
402.2540420000001
 21
372.1568065
 31
0.0
210
-1.0
220
-0.0000000000000002
230
0.0000000000000001
  0
LINE
  5
946
330
70
100
AcDbEntity
  8
Visible
100
AcDbLine
 10
402.2540420000001
 20
354.3665040000001
 30
0.0
 11
402.2540420000001
 21
354.4602665000001
 31
0.0
210
-1.0
220
-0.0000000000000002
230
0.0000000000000001
  0
LINE
  5
947
330
70
100
AcDbEntity
  8
Visible
100
AcDbLine
 10
412.254042
 20
354.3665040000001
 30
0.0
 11
412.254042
 21
354.4602665000001
 31
0.0
210
-1.0
220
-0.0000000000000002
230
0.0000000000000001
  0
LINE
  5
948
330
70
100
AcDbEntity
  8
Visible
100
AcDbLine
 10
412.254042
 20
354.3665040000001
 30
0.0
 11
402.2540420000001
 21
354.3665040000001
 31
0.0
210
-1.0
220
-0.0000000000000002
230
0.0000000000000001
  0
LINE
  5
949
330
70
100
AcDbEntity
  8
Visible
100
AcDbLine
 10
422.254042
 20
354.4602665000001
 30
0.0
 11
422.254042
 21
354.3602540000001
 31
0.0
210
-1.0
220
-0.0000000000000002
230
0.0000000000000001
  0
LINE
  5
94A
330
70
100
AcDbEntity
  8
Visible
100
AcDbLine
 10
392.2540420000001
 20
354.3602540000001
 30
0.0
 11
392.2540420000001
 21
354.4602665000001
 31
0.0
210
-1.0
220
-0.0000000000000002
230
0.0000000000000001
  0
LINE
  5
94B
330
70
100
AcDbEntity
  8
Visible
100
AcDbLine
 10
57.25404200000001
 20
354.4602665000001
 30
0.0
 11
57.25404200000001
 21
354.9602665
 31
0.0
210
-1.0
220
-0.0000000000000002
230
0.0000000000000001
  0
LINE
  5
94C
330
70
100
AcDbEntity
  8
Visible
100
AcDbLine
 10
57.25404200000001
 20
371.5602665000001
 30
0.0
 11
57.25404200000001
 21
354.9602665
 31
0.0
210
-1.0
220
-0.0000000000000002
230
0.0000000000000001
  0
LINE
  5
94D
330
70
100
AcDbEntity
  8
Visible
100
AcDbLine
 10
57.25404200000001
 20
371.5602665000001
 30
0.0
 11
57.25404200000001
 21
372.0602665
 31
0.0
210
-1.0
220
-0.0000000000000002
230
0.0000000000000001
  0
LINE
  5
94E
330
70
100
AcDbEntity
  8
Visible
100
AcDbLine
 10
757.2540419999998
 20
372.0602665
 30
0.0
 11
57.25404200000001
 21
372.0602665
 31
0.0
210
-1.0
220
-0.0000000000000002
230
0.0000000000000001
  0
LINE
  5
94F
330
70
100
AcDbEntity
  8
Visible
100
AcDbLine
 10
757.2540419999998
 20
371.5602665000001
 30
0.0
 11
757.2540419999998
 21
372.0602665
 31
0.0
210
-1.0
220
-0.0000000000000002
230
0.0000000000000001
  0
LINE
  5
950
330
70
100
AcDbEntity
  8
Visible
100
AcDbLine
 10
757.2540419999998
 20
371.5602665000001
 30
0.0
 11
757.2540419999998
 21
354.9602665
 31
0.0
210
-1.0
220
-0.0000000000000002
230
0.0000000000000001
  0
LINE
  5
951
330
70
100
AcDbEntity
  8
Visible
100
AcDbLine
 10
757.2540419999998
 20
354.4602665000001
 30
0.0
 11
57.25404200000001
 21
354.4602665000001
 31
0.0
210
-1.0
220
-0.0000000000000002
230
0.0000000000000001
  0
LINE
  5
952
330
70
100
AcDbEntity
  8
Visible
100
AcDbLine
 10
757.2540419999998
 20
354.4602665000001
 30
0.0
 11
757.2540419999998
 21
354.9602665
 31
0.0
210
-1.0
220
-0.0000000000000002
230
0.0000000000000001
  0
LINE
  5
953
330
70
100
AcDbEntity
  8
Visible
100
AcDbLine
 10
815.6367399304064
 20
230.4023265
 30
0.0
 11
819.1367399304064
 21
230.4023265
 31
0.0
  0
LINE
  5
954
330
70
100
AcDbEntity
  8
Visible
100
AcDbLine
 10
823.5367399304065
 20
230.4023265
 30
0.0
 11
827.0367399304065
 21
230.4023265
 31
0.0
  0
LINE
  5
955
330
70
100
AcDbEntity
  8
Visible
100
AcDbLine
 10
815.6367399304064
 20
229.4023264999999
 30
0.0
 11
815.6367399304064
 21
230.4023265
 31
0.0
  0
LINE
  5
956
330
70
100
AcDbEntity
  8
Visible
100
AcDbLine
 10
819.1367399304064
 20
230.4023265
 30
0.0
 11
819.1367399304064
 21
229.4023264999999
 31
0.0
  0
LINE
  5
957
330
70
100
AcDbEntity
  8
Visible
100
AcDbLine
 10
819.1367399304064
 20
229.4023264999999
 30
0.0
 11
823.5367399304065
 21
229.4023264999999
 31
0.0
  0
LINE
  5
958
330
70
100
AcDbEntity
  8
Visible
100
AcDbLine
 10
823.5367399304065
 20
229.4023264999999
 30
0.0
 11
823.5367399304065
 21
230.4023265
 31
0.0
  0
LINE
  5
959
330
70
100
AcDbEntity
  8
Visible
100
AcDbLine
 10
827.0367399304065
 20
230.4023265
 30
0.0
 11
827.0367399304065
 21
229.4023264999999
 31
0.0
  0
LINE
  5
95A
330
70
100
AcDbEntity
  8
Visible
100
AcDbLine
 10
827.0367399304065
 20
229.4023264999999
 30
0.0
 11
828.0367399304065
 21
229.4023264999999
 31
0.0
  0
LINE
  5
95B
330
70
100
AcDbEntity
  8
Visible
100
AcDbLine
 10
828.0367399304065
 20
229.4023264999999
 30
0.0
 11
828.0367399304065
 21
231.4023265
 31
0.0
  0
LINE
  5
95C
330
70
100
AcDbEntity
  8
Visible
100
AcDbLine
 10
814.6367399304065
 20
229.4023264999999
 30
0.0
 11
814.6367399304065
 21
231.4023265
 31
0.0
  0
LINE
  5
95D
330
70
100
AcDbEntity
  8
Visible
100
AcDbLine
 10
814.6367399304065
 20
229.4023264999999
 30
0.0
 11
815.6367399304064
 21
229.4023264999999
 31
0.0
  0
LINE
  5
95E
330
70
100
AcDbEntity
  8
Visible
100
AcDbLine
 10
828.8367399304064
 20
241.4023265
 30
0.0
 11
828.8367399304064
 21
240.4023265
 31
0.0
  0
LINE
  5
95F
330
70
100
AcDbEntity
  8
Visible
100
AcDbLine
 10
828.8367399304064
 20
241.4023265
 30
0.0
 11
827.8367399304066
 21
241.4023265
 31
0.0
  0
LINE
  5
960
330
70
100
AcDbEntity
  8
Visible
100
AcDbLine
 10
827.8367399304066
 20
240.4023265
 30
0.0
 11
827.8367399304066
 21
241.4023265
 31
0.0
  0
LINE
  5
961
330
70
100
AcDbEntity
  8
Visible
100
AcDbLine
 10
827.8367399304066
 20
233.4023264999999
 30
0.0
 11
827.8367399304066
 21
240.4023265
 31
0.0
  0
LINE
  5
962
330
70
100
AcDbEntity
  8
Visible
100
AcDbLine
 10
813.8367399304064
 20
240.4023265
 30
0.0
 11
813.8367399304064
 21
241.4023265
 31
0.0
  0
LINE
  5
963
330
70
100
AcDbEntity
  8
Visible
100
AcDbLine
 10
814.8367399304065
 20
241.4023265
 30
0.0
 11
814.8367399304065
 21
240.4023265
 31
0.0
  0
LINE
  5
964
330
70
100
AcDbEntity
  8
Visible
100
AcDbLine
 10
814.8367399304065
 20
241.4023265
 30
0.0
 11
813.8367399304064
 21
241.4023265
 31
0.0
  0
LINE
  5
965
330
70
100
AcDbEntity
  8
Visible
100
AcDbLine
 10
813.8367399304064
 20
232.4023264999999
 30
0.0
 11
813.8367399304064
 21
238.276409
 31
0.0
  0
LINE
  5
966
330
70
100
AcDbEntity
  8
Visible
100
AcDbLine
 10
813.8367399304064
 20
238.276409
 30
0.0
 11
813.8367399304064
 21
240.4023265
 31
0.0
  0
LINE
  5
967
330
70
100
AcDbEntity
  8
Visible
100
AcDbLine
 10
827.8367399304066
 20
233.4023264999999
 30
0.0
 11
814.8367399304065
 21
233.4023264999999
 31
0.0
  0
ARC
  5
968
330
70
100
AcDbEntity
  8
Visible
100
AcDbCircle
 10
819.8367399304066
 20
234.9023264999999
 30
0.0
 40
1.5
100
AcDbArc
 50
90.0
 51
270.0
  0
LINE
  5
969
330
70
100
AcDbEntity
  8
Visible
100
AcDbLine
 10
822.8367399304065
 20
236.4023265
 30
0.0
 11
819.8367399304066
 21
236.4023265
 31
0.0
  0
ARC
  5
96A
330
70
100
AcDbEntity
  8
Visible
100
AcDbCircle
 10
822.8367399304065
 20
234.9023264999999
 30
0.0
 40
1.5
100
AcDbArc
 50
270.0
 51
90.0
  0
LINE
  5
96B
330
70
100
AcDbEntity
  8
Visible
100
AcDbLine
 10
828.0367399304065
 20
229.4023264999999
 30
0.0
 11
828.4367399304064
 21
229.4023264999999
 31
0.0
  0
LINE
  5
96C
330
70
100
AcDbEntity
  8
Visible
100
AcDbLine
 10
830.1367399304066
 20
237.2669389999999
 30
0.0
 11
830.1367399304066
 21
238.8887964999999
 31
0.0
  0
LINE
  5
96D
330
70
100
AcDbEntity
  8
Visible
100
AcDbLine
 10
830.1367399304066
 20
239.245099
 30
0.0
 11
830.1367399304066
 21
240.2669389999999
 31
0.0
  0
LINE
  5
96E
330
70
100
AcDbEntity
  8
Visible
100
AcDbLine
 10
830.1367399304066
 20
243.2993464999999
 30
0.0
 11
830.1367399304066
 21
244.4993465
 31
0.0
  0
LINE
  5
96F
330
70
100
AcDbEntity
  8
Visible
100
AcDbLine
 10
830.1367399304066
 20
246.0993465
 30
0.0
 11
830.1367399304066
 21
249.8023265
 31
0.0
  0
ARC
  5
970
330
70
100
AcDbEntity
  8
Visible
100
AcDbCircle
 10
-829.6367399304065
 20
249.8023265
 30
0.0
 40
0.5000000000000006
210
0.0
220
0.0
230
-1.0
100
AcDbArc
 50
90.0
 51
180.0
  0
LINE
  5
971
330
70
100
AcDbEntity
  8
Visible
100
AcDbLine
 10
829.6367399304065
 20
250.3023265
 30
0.0
 11
813.0367399304065
 21
250.3023265
 31
0.0
  0
ARC
  5
972
330
70
100
AcDbEntity
  8
Visible
100
AcDbCircle
 10
-813.0367399304065
 20
249.8023265
 30
0.0
 40
0.4999999999999983
210
0.0
220
0.0
230
-1.0
100
AcDbArc
 50
0.0
 51
90.0
  0
LINE
  5
973
330
70
100
AcDbEntity
  8
Visible
100
AcDbLine
 10
812.5367399304064
 20
249.8023265
 30
0.0
 11
812.5367399304064
 21
246.0993465
 31
0.0
  0
LINE
  5
974
330
70
100
AcDbEntity
  8
Visible
100
AcDbLine
 10
812.5367399304064
 20
244.4993465
 30
0.0
 11
812.5367399304064
 21
243.2993464999999
 31
0.0
  0
LINE
  5
975
330
70
100
AcDbEntity
  8
Visible
100
AcDbLine
 10
812.5367399304064
 20
240.2669389999999
 30
0.0
 11
812.5367399304064
 21
239.4656965
 31
0.0
  0
LINE
  5
976
330
70
100
AcDbEntity
  8
Visible
100
AcDbLine
 10
812.5367399304064
 20
239.1093939999999
 30
0.0
 11
812.5367399304064
 21
237.2669389999999
 31
0.0
  0
LINE
  5
977
330
70
100
AcDbEntity
  8
Visible
100
AcDbLine
 10
814.2367399304065
 20
229.4023264999999
 30
0.0
 11
814.6367399304065
 21
229.4023264999999
 31
0.0
  0
LINE
  5
978
330
70
100
AcDbEntity
  8
Visible
100
AcDbLine
 10
814.8367399304065
 20
233.4023264999999
 30
0.0
 11
814.8367399304065
 21
240.4023265
 31
0.0
  0
LINE
  5
979
330
70
100
AcDbEntity
  8
Visible
100
AcDbLine
 10
816.0367399304066
 20
232.4023264999999
 30
0.0
 11
816.6367399304064
 21
232.4023264999999
 31
0.0
  0
LINE
  5
97A
330
70
100
AcDbEntity
  8
Visible
100
AcDbLine
 10
821.0367399304066
 20
232.4023264999999
 30
0.0
 11
821.6367399304065
 21
232.4023264999999
 31
0.0
  0
LINE
  5
97B
330
70
100
AcDbEntity
  8
Visible
100
AcDbLine
 10
826.0367399304065
 20
232.4023264999999
 30
0.0
 11
826.6367399304066
 21
232.4023264999999
 31
0.0
  0
LINE
  5
97C
330
70
100
AcDbEntity
  8
Visible
100
AcDbLine
 10
828.8367399304064
 20
232.4023264999999
 30
0.0
 11
828.8367399304064
 21
238.0558114999999
 31
0.0
  0
LINE
  5
97D
330
70
100
AcDbEntity
  8
Visible
100
AcDbLine
 10
828.8367399304064
 20
238.0558114999999
 30
0.0
 11
828.8367399304064
 21
240.4023265
 31
0.0
  0
LINE
  5
97E
330
70
100
AcDbEntity
  8
Visible
100
AcDbLine
 10
827.0367399304065
 20
229.4023264999999
 30
0.0
 11
823.5367399304065
 21
229.4023264999999
 31
0.0
  0
LINE
  5
97F
330
70
100
AcDbEntity
  8
Visible
100
AcDbLine
 10
819.1367399304064
 20
229.4023264999999
 30
0.0
 11
815.6367399304064
 21
229.4023264999999
 31
0.0
  0
ARC
  5
980
330
70
100
AcDbEntity
  8
Visible
100
AcDbCircle
 10
812.4401974304065
 20
239.5275565
 30
0.0
 40
0.2999999999998427
100
AcDbArc
 50
180.7161600000001
 51
237.3499999999999
  0
LINE
  5
981
330
70
100
AcDbEntity
  8
Visible
100
AcDbLine
 10
812.2783474304066
 20
239.2749615
 30
0.0
 11
813.0367399304065
 21
238.7890154130733
 31
0.0
  0
LINE
  5
984
330
70
100
AcDbEntity
  8
Visible
100
AcDbLine
 10
812.4401974304065
 20
239.5275565
 30
0.0
 11
812.3992324304065
 21
242.8049039999999
 31
0.0
  0
LINE
  5
985
330
70
100
AcDbEntity
  8
Visible
100
AcDbLine
 10
812.3992324304065
 20
242.8049039999999
 30
0.0
 11
812.0992549304066
 21
242.8011539999999
 31
0.0
  0
LINE
  5
986
330
70
100
AcDbEntity
  8
Visible
100
AcDbLine
 10
812.0992549304066
 20
242.8011539999999
 30
0.0
 11
812.1402224304064
 21
239.5238065
 31
0.0
  0
LINE
  5
987
330
70
100
AcDbEntity
  8
Visible
100
AcDbLine
 10
828.0865599304064
 20
227.8023265
 30
0.0
 11
828.0903099304065
 21
228.1023264999999
 31
0.0
  0
LINE
  5
988
330
70
100
AcDbEntity
  8
Visible
100
AcDbLine
 10
828.0903099304065
 20
228.1023264999999
 30
0.0
 11
825.3367399304066
 21
228.1023264999999
 31
0.0
  0
LINE
  5
989
330
70
100
AcDbEntity
  8
Visible
100
AcDbLine
 10
825.3367399304066
 20
228.1023264999999
 30
0.0
 11
825.3367399304066
 21
227.8023265
 31
0.0
  0
LINE
  5
98A
330
70
100
AcDbEntity
  8
Visible
100
AcDbLine
 10
825.3367399304066
 20
227.8023265
 30
0.0
 11
828.0865599304064
 21
227.8023265
 31
0.0
  0
LINE
  5
98B
330
70
100
AcDbEntity
  8
Visible
100
AcDbLine
 10
814.2831474304063
 20
228.1023264999999
 30
0.0
 11
814.2868974304064
 21
227.8023265
 31
0.0
  0
LINE
  5
98C
330
70
100
AcDbEntity
  8
Visible
100
AcDbLine
 10
814.2868974304064
 20
227.8023265
 30
0.0
 11
817.3367399304066
 21
227.8023265
 31
0.0
  0
LINE
  5
98D
330
70
100
AcDbEntity
  8
Visible
100
AcDbLine
 10
817.3367399304066
 20
227.8023265
 30
0.0
 11
817.3367399304066
 21
228.1023264999999
 31
0.0
  0
LINE
  5
98E
330
70
100
AcDbEntity
  8
Visible
100
AcDbLine
 10
817.3367399304066
 20
228.1023264999999
 30
0.0
 11
814.2831474304063
 21
228.1023264999999
 31
0.0
  0
LINE
  5
98F
330
70
100
AcDbEntity
  8
Visible
100
AcDbLine
 10
812.5618124304065
 20
229.798444
 30
0.0
 11
812.4652049304064
 21
237.5270865
 31
0.0
  0
LINE
  5
990
330
70
100
AcDbEntity
  8
Visible
100
AcDbLine
 10
812.4652049304064
 20
237.5270865
 30
0.0
 11
812.1651349304066
 21
237.530839
 31
0.0
  0
LINE
  5
991
330
70
100
AcDbEntity
  8
Visible
100
AcDbLine
 10
812.1651349304066
 20
237.530839
 30
0.0
 11
812.2618349304065
 21
229.794694
 31
0.0
  0
LINE
  5
992
330
70
100
AcDbEntity
  8
Visible
100
AcDbLine
 10
812.2618349304065
 20
229.794694
 30
0.0
 11
812.5618124304065
 21
229.798444
 31
0.0
  0
LINE
  5
993
330
70
100
AcDbEntity
  8
Visible
100
AcDbLine
 10
830.5304799304064
 20
239.3014264999999
 30
0.0
 11
830.5742249304064
 21
242.8011539999999
 31
0.0
  0
LINE
  5
994
330
70
100
AcDbEntity
  8
Visible
100
AcDbLine
 10
830.5742249304064
 20
242.8011539999999
 30
0.0
 11
830.2742499304065
 21
242.8049039999999
 31
0.0
  0
LINE
  5
995
330
70
100
AcDbEntity
  8
Visible
100
AcDbLine
 10
830.2742499304065
 20
242.8049039999999
 30
0.0
 11
830.2305024304065
 21
239.3051765
 31
0.0
  0
LINE
  5
996
330
70
100
AcDbEntity
  8
Visible
100
AcDbLine
 10
830.2305024304065
 20
239.3051765
 30
0.0
 11
829.6367399304065
 21
238.9247192896256
 31
0.0
  0
LINE
  5
998
330
70
100
AcDbEntity
  8
Visible
100
AcDbLine
 10
829.6367399304065
 20
238.5684169590803
 30
0.0
 11
830.3923549304066
 21
239.0525815
 31
0.0
  0
ARC
  5
999
330
70
100
AcDbEntity
  8
Visible
100
AcDbCircle
 10
830.2305024304065
 20
239.3051765
 30
0.0
 40
0.3000000000000073
100
AcDbArc
 50
302.65
 51
359.2838399999999
  0
LINE
  5
99A
330
70
100
AcDbEntity
  8
Visible
100
AcDbLine
 10
830.4116449304064
 20
229.794694
 30
0.0
 11
830.5054799304064
 21
237.301584
 31
0.0
  0
LINE
  5
99B
330
70
100
AcDbEntity
  8
Visible
100
AcDbLine
 10
830.5054799304064
 20
237.301584
 30
0.0
 11
830.2055049304065
 21
237.305334
 31
0.0
  0
LINE
  5
99C
330
70
100
AcDbEntity
  8
Visible
100
AcDbLine
 10
830.2055049304065
 20
237.305334
 30
0.0
 11
830.1116674304065
 21
229.798444
 31
0.0
  0
LINE
  5
99D
330
70
100
AcDbEntity
  8
Visible
100
AcDbLine
 10
830.1116674304065
 20
229.798444
 30
0.0
 11
830.4116449304064
 21
229.794694
 31
0.0
  0
LINE
  5
99E
330
70
100
AcDbEntity
  8
Visible
100
AcDbLine
 10
830.4116449304064
 20
229.794694
 30
0.0
 11
830.3903974304065
 21
228.0948265
 31
0.0
  0
LINE
  5
99F
330
70
100
AcDbEntity
  8
Visible
100
AcDbLine
 10
830.5304799304064
 20
239.3014264999999
 30
0.0
 11
830.5054799304064
 21
237.301584
 31
0.0
  0
LINE
  5
9A0
330
70
100
AcDbEntity
  8
Visible
100
AcDbLine
 10
814.2868974304064
 20
227.8023265
 30
0.0
 11
812.5792649304065
 21
227.8023265
 31
0.0
  0
LINE
  5
9A1
330
70
100
AcDbEntity
  8
Visible
100
AcDbLine
 10
830.0942174304065
 20
227.8023265
 30
0.0
 11
828.0865599304064
 21
227.8023265
 31
0.0
  0
LINE
  5
9A2
330
70
100
AcDbEntity
  8
Visible
100
AcDbLine
 10
825.3367399304066
 20
227.8023265
 30
0.0
 11
824.8008424304066
 21
227.8023265
 31
0.0
  0
LINE
  5
9A3
330
70
100
AcDbEntity
  8
Visible
100
AcDbLine
 10
824.8008424304066
 20
227.8023265
 30
0.0
 11
817.8726374304064
 21
227.8023265
 31
0.0
  0
LINE
  5
9A4
330
70
100
AcDbEntity
  8
Visible
100
AcDbLine
 10
817.8726374304064
 20
227.8023265
 30
0.0
 11
817.3367399304066
 21
227.8023265
 31
0.0
  0
LINE
  5
9A5
330
70
100
AcDbEntity
  8
Visible
100
AcDbLine
 10
812.5655574304063
 20
229.498904
 30
0.0
 11
812.5830149304064
 21
228.1023264999999
 31
0.0
  0
LINE
  5
9A6
330
70
100
AcDbEntity
  8
Visible
100
AcDbLine
 10
812.4446874304066
 20
239.1683764999999
 30
0.0
 11
812.4652049304064
 21
237.5270865
 31
0.0
  0
LINE
  5
9A7
330
70
100
AcDbEntity
  8
Visible
100
AcDbLine
 10
817.8726374304064
 20
228.1023264999999
 30
0.0
 11
824.8008424304066
 21
228.1023264999999
 31
0.0
  0
LINE
  5
9A8
330
70
100
AcDbEntity
  8
Visible
100
AcDbLine
 10
817.8726374304064
 20
228.1023264999999
 30
0.0
 11
817.8726374304064
 21
227.8023265
 31
0.0
  0
LINE
  5
9A9
330
70
100
AcDbEntity
  8
Visible
100
AcDbLine
 10
824.8008424304066
 20
228.1023264999999
 30
0.0
 11
824.8008424304066
 21
227.8023265
 31
0.0
  0
LINE
  5
9AA
330
70
100
AcDbEntity
  8
Visible
100
AcDbLine
 10
817.3367399304066
 20
228.1023264999999
 30
0.0
 11
817.8726374304064
 21
228.1023264999999
 31
0.0
  0
LINE
  5
9AB
330
70
100
AcDbEntity
  8
Visible
100
AcDbLine
 10
824.8008424304066
 20
228.1023264999999
 30
0.0
 11
825.3367399304066
 21
228.1023264999999
 31
0.0
  0
ARC
  5
9AC
330
70
100
AcDbEntity
  8
Visible
100
AcDbCircle
 10
-812.5830149304064
 20
228.1023264999999
 30
0.0
 40
0.3000234365845293
210
0.0
220
0.0
230
-1.0
100
AcDbArc
 50
270.71616
 51
358.5676800000001
  0
LINE
  5
9AD
330
70
100
AcDbEntity
  8
Visible
100
AcDbLine
 10
812.2830849304063
 20
228.0948265
 30
0.0
 11
812.2618349304065
 21
229.794694
 31
0.0
  0
LINE
  5
9AE
330
70
100
AcDbEntity
  8
Visible
100
AcDbLine
 10
812.5830149304064
 20
228.1023264999999
 30
0.0
 11
814.2831474304063
 21
228.1023264999999
 31
0.0
  0
ARC
  5
9AF
330
70
100
AcDbEntity
  8
Visible
100
AcDbCircle
 10
-830.0904674304065
 20
228.1023264999999
 30
0.0
 40
0.300023436584535
210
0.0
220
0.0
230
-1.0
100
AcDbArc
 50
181.4323199999998
 51
269.2838400000001
  0
LINE
  5
9B0
330
70
100
AcDbEntity
  8
Visible
100
AcDbLine
 10
828.0903099304065
 20
228.1023264999999
 30
0.0
 11
830.0904674304065
 21
228.1023264999999
 31
0.0
  0
LINE
  5
9B1
330
70
100
AcDbEntity
  8
Visible
100
AcDbLine
 10
830.0904674304065
 20
228.1023264999999
 30
0.0
 11
830.1079249304063
 21
229.498904
 31
0.0
  0
LINE
  5
9B2
330
70
100
AcDbEntity
  8
Visible
100
AcDbLine
 10
830.2055049304065
 20
237.305334
 30
0.0
 11
830.2260124304066
 21
238.9459989999999
 31
0.0
  0
LINE
  5
9B3
330
70
100
AcDbEntity
  8
Visible
100
AcDbLine
 10
812.1651349304066
 20
237.530839
 30
0.0
 11
812.1402224304064
 21
239.5238065
 31
0.0
  0
LINE
  5
9B4
330
70
100
AcDbEntity
  8
Visible
100
AcDbLine
 10
814.8264649304064
 20
255.2348265
 30
0.0
 11
814.9226299304064
 21
255.3515439999999
 31
0.0
  0
ARC
  5
9B5
330
70
100
AcDbEntity
  8
Visible
100
AcDbCircle
 10
814.5367399304065
 20
255.669489
 30
0.0
 40
0.499999999999994
100
AcDbArc
 50
320.5139819999997
 51
0.0
  0
LINE
  5
9B6
330
70
100
AcDbEntity
  8
Visible
100
AcDbLine
 10
815.0367399304064
 20
255.669489
 30
0.0
 11
815.0367399304064
 21
256.2993464999999
 31
0.0
  0
ARC
  5
9B7
330
70
100
AcDbEntity
  8
Visible
100
AcDbCircle
 10
814.0367399304066
 20
256.2993464999999
 30
0.0
 40
1.000000000000178
100
AcDbArc
 50
0.0
 51
90.0
  0
LINE
  5
9B8
330
70
100
AcDbEntity
  8
Visible
100
AcDbLine
 10
814.0367399304066
 20
257.2993465000001
 30
0.0
 11
813.5367399304065
 21
257.2993465000001
 31
0.0
  0
LINE
  5
9B9
330
70
100
AcDbEntity
  8
Visible
100
AcDbLine
 10
813.5367399304065
 20
257.2993465000001
 30
0.0
 11
813.5367399304065
 21
258.7993465
 31
0.0
  0
LINE
  5
9BA
330
70
100
AcDbEntity
  8
Visible
100
AcDbLine
 10
813.5367399304065
 20
258.7993465
 30
0.0
 11
829.1367399304064
 21
258.7993465
 31
0.0
  0
LINE
  5
9BB
330
70
100
AcDbEntity
  8
Visible
100
AcDbLine
 10
829.1367399304064
 20
258.7993465
 30
0.0
 11
829.1367399304064
 21
257.2993465000001
 31
0.0
  0
LINE
  5
9BC
330
70
100
AcDbEntity
  8
Visible
100
AcDbLine
 10
829.1367399304064
 20
257.2993465000001
 30
0.0
 11
828.6367399304065
 21
257.2993465000001
 31
0.0
  0
ARC
  5
9BD
330
70
100
AcDbEntity
  8
Visible
100
AcDbCircle
 10
828.6367399304065
 20
256.2993464999999
 30
0.0
 40
1.000000000000053
100
AcDbArc
 50
90.0
 51
180.0
  0
LINE
  5
9BE
330
70
100
AcDbEntity
  8
Visible
100
AcDbLine
 10
827.6367399304065
 20
256.2993464999999
 30
0.0
 11
827.6367399304065
 21
255.669489
 31
0.0
  0
ARC
  5
9BF
330
70
100
AcDbEntity
  8
Visible
100
AcDbCircle
 10
828.1367399304064
 20
255.669489
 30
0.0
 40
0.5000000000010145
100
AcDbArc
 50
180.0
 51
219.4860180000003
  0
LINE
  5
9C0
330
70
100
AcDbEntity
  8
Visible
100
AcDbLine
 10
827.7508499304065
 20
255.3515439999999
 30
0.0
 11
827.8470149304066
 21
255.2348265
 31
0.0
  0
ARC
  5
9C1
330
70
100
AcDbEntity
  8
Visible
100
AcDbCircle
 10
828.2329049304065
 20
255.5527715
 30
0.0
 40
0.4999999999996563
100
AcDbArc
 50
219.4860180000003
 51
39.48601799999982
  0
LINE
  5
9C2
330
70
100
AcDbEntity
  8
Visible
100
AcDbLine
 10
828.6187949304064
 20
255.8707164999999
 30
0.0
 11
828.5352074304066
 21
255.9721689999999
 31
0.0
  0
ARC
  5
9C3
330
70
100
AcDbEntity
  8
Visible
100
AcDbCircle
 10
-828.6895624304065
 20
256.0993465
 30
0.0
 40
0.2000000000001125
210
0.0
220
0.0
230
-1.0
100
AcDbArc
 50
320.5139819999997
 51
90.0
  0
LINE
  5
9C4
330
70
100
AcDbEntity
  8
Visible
100
AcDbLine
 10
828.6895624304065
 20
256.2993464999999
 30
0.0
 11
829.9367399304065
 21
256.2993464999999
 31
0.0
  0
ARC
  5
9C5
330
70
100
AcDbEntity
  8
Visible
100
AcDbCircle
 10
829.9367399304065
 20
256.4993465
 30
0.0
 40
0.199999999999999
100
AcDbArc
 50
270.0
 51
0.0
  0
LINE
  5
9C6
330
70
100
AcDbEntity
  8
Visible
100
AcDbLine
 10
830.1367399304066
 20
256.4993465
 30
0.0
 11
830.1367399304066
 21
259.7993465000001
 31
0.0
  0
ARC
  5
9C7
330
70
100
AcDbEntity
  8
Visible
100
AcDbCircle
 10
829.6367399304065
 20
259.7993465000001
 30
0.0
 40
0.4999999999999938
100
AcDbArc
 50
0.0
 51
90.0
  0
LINE
  5
9C8
330
70
100
AcDbEntity
  8
Visible
100
AcDbLine
 10
829.6367399304065
 20
260.2993464999999
 30
0.0
 11
813.0367399304065
 21
260.2993464999999
 31
0.0
  0
ARC
  5
9C9
330
70
100
AcDbEntity
  8
Visible
100
AcDbCircle
 10
813.0367399304065
 20
259.7993465000001
 30
0.0
 40
0.5000000000000048
100
AcDbArc
 50
90.0
 51
180.0
  0
LINE
  5
9CA
330
70
100
AcDbEntity
  8
Visible
100
AcDbLine
 10
812.5367399304064
 20
259.7993465000001
 30
0.0
 11
812.5367399304064
 21
256.4993465
 31
0.0
  0
ARC
  5
9CB
330
70
100
AcDbEntity
  8
Visible
100
AcDbCircle
 10
812.7367399304064
 20
256.4993465
 30
0.0
 40
0.2000000000000313
100
AcDbArc
 50
180.0
 51
270.0
  0
LINE
  5
9CC
330
70
100
AcDbEntity
  8
Visible
100
AcDbLine
 10
812.7367399304064
 20
256.2993464999999
 30
0.0
 11
813.9839174304064
 21
256.2993464999999
 31
0.0
  0
ARC
  5
9CD
330
70
100
AcDbEntity
  8
Visible
100
AcDbCircle
 10
-813.9839174304064
 20
256.0993465
 30
0.0
 40
0.2000000000000002
210
0.0
220
0.0
230
-1.0
100
AcDbArc
 50
90.0
 51
219.4860180000003
  0
LINE
  5
9CE
330
70
100
AcDbEntity
  8
Visible
100
AcDbLine
 10
814.1382749304066
 20
255.9721689999999
 30
0.0
 11
814.0546849304064
 21
255.8707164999999
 31
0.0
  0
ARC
  5
9CF
330
70
100
AcDbEntity
  8
Visible
100
AcDbCircle
 10
814.4405749304064
 20
255.5527715
 30
0.0
 40
0.4999999999999991
100
AcDbArc
 50
140.5139820000002
 51
320.5139819999997
  0
LINE
  5
9D0
330
70
100
AcDbEntity
  8
Visible
100
AcDbLine
 10
826.0367399304065
 20
232.4023264999999
 30
0.0
 11
821.6367399304065
 21
232.4023264999999
 31
0.0
  0
LINE
  5
9D1
330
70
100
AcDbEntity
  8
Visible
100
AcDbLine
 10
821.6367399304065
 20
232.4023264999999
 30
0.0
 11
821.3367399304065
 21
232.1023265
 31
0.0
  0
LINE
  5
9D2
330
70
100
AcDbEntity
  8
Visible
100
AcDbLine
 10
821.3367399304065
 20
232.1023265
 30
0.0
 11
821.0367399304066
 21
232.4023264999999
 31
0.0
  0
LINE
  5
9D3
330
70
100
AcDbEntity
  8
Visible
100
AcDbLine
 10
821.0367399304066
 20
232.4023264999999
 30
0.0
 11
816.6367399304064
 21
232.4023264999999
 31
0.0
  0
LINE
  5
9D4
330
70
100
AcDbEntity
  8
Visible
100
AcDbLine
 10
816.6367399304064
 20
232.4023264999999
 30
0.0
 11
816.3367399304064
 21
232.1023265
 31
0.0
  0
LINE
  5
9D5
330
70
100
AcDbEntity
  8
Visible
100
AcDbLine
 10
816.3367399304064
 20
232.1023265
 30
0.0
 11
816.0367399304066
 21
232.4023264999999
 31
0.0
  0
LINE
  5
9D6
330
70
100
AcDbEntity
  8
Visible
100
AcDbLine
 10
816.0367399304066
 20
232.4023264999999
 30
0.0
 11
813.7367399304064
 21
232.4023264999999
 31
0.0
  0
LINE
  5
9D7
330
70
100
AcDbEntity
  8
Visible
100
AcDbLine
 10
813.7367399304064
 20
232.4023264999999
 30
0.0
 11
813.7367399304064
 21
243.3130439999999
 31
0.0
  0
LINE
  5
9D8
330
70
100
AcDbEntity
  8
Visible
100
AcDbLine
 10
813.7367399304064
 20
243.3130439999999
 30
0.0
 11
814.2367399304065
 21
243.3130439999999
 31
0.0
  0
LINE
  5
9D9
330
70
100
AcDbEntity
  8
Visible
100
AcDbLine
 10
814.2367399304065
 20
243.3130439999999
 30
0.0
 11
814.2367399304065
 21
243.4887789999999
 31
0.0
  0
ARC
  5
9DA
330
70
100
AcDbEntity
  8
Visible
100
AcDbCircle
 10
813.9367399304065
 20
243.4887789999999
 30
0.0
 40
0.2999999999994683
100
AcDbArc
 50
0.0
 51
44.99999999999977
  0
LINE
  5
9DB
330
70
100
AcDbEntity
  8
Visible
100
AcDbLine
 10
814.1488724304064
 20
243.7009115
 30
0.0
 11
813.7367399304064
 21
244.113044
 31
0.0
  0
LINE
  5
9DC
330
70
100
AcDbEntity
  8
Visible
100
AcDbLine
 10
813.7367399304064
 20
244.113044
 30
0.0
 11
813.7367399304064
 21
245.619899
 31
0.0
  0
ARC
  5
9DD
330
70
100
AcDbEntity
  8
Visible
100
AcDbCircle
 10
-814.2367399304065
 20
245.619899
 30
0.0
 40
0.499999999999946
210
0.0
220
0.0
230
-1.0
100
AcDbArc
 50
0.0
 51
39.48601799999982
  0
LINE
  5
9DE
330
70
100
AcDbEntity
  8
Visible
100
AcDbLine
 10
813.8508499304064
 20
245.937844
 30
0.0
 11
814.0139174304065
 21
246.135759
 31
0.0
  0
ARC
  5
9DF
330
70
100
AcDbEntity
  8
Visible
100
AcDbCircle
 10
813.9367399304065
 20
246.1993464999999
 30
0.0
 40
0.0999999999999558
100
AcDbArc
 50
320.5139819999997
 51
90.0
  0
LINE
  5
9E0
330
70
100
AcDbEntity
  8
Visible
100
AcDbLine
 10
813.9367399304065
 20
246.2993465
 30
0.0
 11
812.7367399304064
 21
246.2993465
 31
0.0
  0
ARC
  5
9E1
330
70
100
AcDbEntity
  8
Visible
100
AcDbCircle
 10
812.7367399304064
 20
246.0993465
 30
0.0
 40
0.200000000000119
100
AcDbArc
 50
90.0
 51
180.0
  0
LINE
  5
9E2
330
70
100
AcDbEntity
  8
Visible
100
AcDbLine
 10
812.5367399304064
 20
246.0993465
 30
0.0
 11
812.5367399304064
 21
244.4993465
 31
0.0
  0
LINE
  5
9E3
330
70
100
AcDbEntity
  8
Visible
100
AcDbLine
 10
812.5367399304064
 20
244.4993465
 30
0.0
 11
813.0367399304065
 21
244.4993465
 31
0.0
  0
LINE
  5
9E4
330
70
100
AcDbEntity
  8
Visible
100
AcDbLine
 10
813.0367399304065
 20
244.4993465
 30
0.0
 11
813.0367399304065
 21
243.2993464999999
 31
0.0
  0
LINE
  5
9E5
330
70
100
AcDbEntity
  8
Visible
100
AcDbLine
 10
813.0367399304065
 20
243.2993464999999
 30
0.0
 11
812.5367399304064
 21
243.2993464999999
 31
0.0
  0
LINE
  5
9E6
330
70
100
AcDbEntity
  8
Visible
100
AcDbLine
 10
812.5367399304064
 20
243.2993464999999
 30
0.0
 11
812.5367399304064
 21
240.2669389999999
 31
0.0
  0
LINE
  5
9E7
330
70
100
AcDbEntity
  8
Visible
100
AcDbLine
 10
812.5367399304064
 20
240.2669389999999
 30
0.0
 11
813.0367399304065
 21
240.2669389999999
 31
0.0
  0
LINE
  5
9E8
330
70
100
AcDbEntity
  8
Visible
100
AcDbLine
 10
813.0367399304065
 20
240.2669389999999
 30
0.0
 11
813.0367399304065
 21
237.2669389999999
 31
0.0
  0
LINE
  5
9E9
330
70
100
AcDbEntity
  8
Visible
100
AcDbLine
 10
813.0367399304065
 20
237.2669389999999
 30
0.0
 11
812.5367399304064
 21
237.2669389999999
 31
0.0
  0
LINE
  5
9EA
330
70
100
AcDbEntity
  8
Visible
100
AcDbLine
 10
812.5367399304064
 20
237.2669389999999
 30
0.0
 11
812.5367399304064
 21
229.6023265
 31
0.0
  0
ARC
  5
9EB
330
70
100
AcDbEntity
  8
Visible
100
AcDbCircle
 10
812.7367399304064
 20
229.6023265
 30
0.0
 40
0.1999999999999987
100
AcDbArc
 50
180.0
 51
270.0
  0
LINE
  5
9EC
330
70
100
AcDbEntity
  8
Visible
100
AcDbLine
 10
812.7367399304064
 20
229.4023264999999
 30
0.0
 11
814.2367399304065
 21
229.4023264999999
 31
0.0
  0
ARC
  5
9ED
330
70
100
AcDbEntity
  8
Visible
100
AcDbCircle
 10
814.2367399304065
 20
229.7023265
 30
0.0
 40
0.299999999999997
100
AcDbArc
 50
270.0
 51
0.0
  0
LINE
  5
9EE
330
70
100
AcDbEntity
  8
Visible
100
AcDbLine
 10
814.5367399304065
 20
229.7023265
 30
0.0
 11
814.5367399304065
 21
230.1023265
 31
0.0
  0
ARC
  5
9EF
330
70
100
AcDbEntity
  8
Visible
100
AcDbCircle
 10
814.2367399304065
 20
230.1023265
 30
0.0
 40
0.3000000000000003
100
AcDbArc
 50
0.0
 51
90.0
  0
LINE
  5
9F0
330
70
100
AcDbEntity
  8
Visible
100
AcDbLine
 10
814.2367399304065
 20
230.4023265
 30
0.0
 11
813.5367399304065
 21
230.4023265
 31
0.0
  0
LINE
  5
9F1
330
70
100
AcDbEntity
  8
Visible
100
AcDbLine
 10
813.5367399304065
 20
230.4023265
 30
0.0
 11
813.5367399304065
 21
231.4023265
 31
0.0
  0
LINE
  5
9F2
330
70
100
AcDbEntity
  8
Visible
100
AcDbLine
 10
813.5367399304065
 20
231.4023265
 30
0.0
 11
829.1367399304064
 21
231.4023265
 31
0.0
  0
LINE
  5
9F3
330
70
100
AcDbEntity
  8
Visible
100
AcDbLine
 10
829.1367399304064
 20
231.4023265
 30
0.0
 11
829.1367399304064
 21
230.4023265
 31
0.0
  0
LINE
  5
9F4
330
70
100
AcDbEntity
  8
Visible
100
AcDbLine
 10
829.1367399304064
 20
230.4023265
 30
0.0
 11
828.4367399304064
 21
230.4023265
 31
0.0
  0
ARC
  5
9F5
330
70
100
AcDbEntity
  8
Visible
100
AcDbCircle
 10
828.4367399304064
 20
230.1023265
 30
0.0
 40
0.3000000000000012
100
AcDbArc
 50
90.0
 51
180.0
  0
LINE
  5
9F6
330
70
100
AcDbEntity
  8
Visible
100
AcDbLine
 10
828.1367399304064
 20
230.1023265
 30
0.0
 11
828.1367399304064
 21
229.7023265
 31
0.0
  0
ARC
  5
9F7
330
70
100
AcDbEntity
  8
Visible
100
AcDbCircle
 10
828.4367399304064
 20
229.7023265
 30
0.0
 40
0.299999999999998
100
AcDbArc
 50
180.0
 51
270.0
  0
LINE
  5
9F8
330
70
100
AcDbEntity
  8
Visible
100
AcDbLine
 10
828.4367399304064
 20
229.4023264999999
 30
0.0
 11
829.9367399304065
 21
229.4023264999999
 31
0.0
  0
ARC
  5
9F9
330
70
100
AcDbEntity
  8
Visible
100
AcDbCircle
 10
829.9367399304065
 20
229.6023265
 30
0.0
 40
0.199999999999997
100
AcDbArc
 50
270.0
 51
0.0
  0
LINE
  5
9FA
330
70
100
AcDbEntity
  8
Visible
100
AcDbLine
 10
830.1367399304066
 20
229.6023265
 30
0.0
 11
830.1367399304066
 21
237.2669389999999
 31
0.0
  0
LINE
  5
9FB
330
70
100
AcDbEntity
  8
Visible
100
AcDbLine
 10
830.1367399304066
 20
237.2669389999999
 30
0.0
 11
829.6367399304065
 21
237.2669389999999
 31
0.0
  0
LINE
  5
9FC
330
70
100
AcDbEntity
  8
Visible
100
AcDbLine
 10
829.6367399304065
 20
237.2669389999999
 30
0.0
 11
829.6367399304065
 21
240.2669389999999
 31
0.0
  0
LINE
  5
9FD
330
70
100
AcDbEntity
  8
Visible
100
AcDbLine
 10
829.6367399304065
 20
240.2669389999999
 30
0.0
 11
830.1367399304066
 21
240.2669389999999
 31
0.0
  0
LINE
  5
9FE
330
70
100
AcDbEntity
  8
Visible
100
AcDbLine
 10
830.1367399304066
 20
240.2669389999999
 30
0.0
 11
830.1367399304066
 21
243.2993464999999
 31
0.0
  0
LINE
  5
9FF
330
70
100
AcDbEntity
  8
Visible
100
AcDbLine
 10
830.1367399304066
 20
243.2993464999999
 30
0.0
 11
829.6367399304065
 21
243.2993464999999
 31
0.0
  0
LINE
  5
A00
330
70
100
AcDbEntity
  8
Visible
100
AcDbLine
 10
829.6367399304065
 20
243.2993464999999
 30
0.0
 11
829.6367399304065
 21
244.4993465
 31
0.0
  0
LINE
  5
A01
330
70
100
AcDbEntity
  8
Visible
100
AcDbLine
 10
829.6367399304065
 20
244.4993465
 30
0.0
 11
830.1367399304066
 21
244.4993465
 31
0.0
  0
LINE
  5
A02
330
70
100
AcDbEntity
  8
Visible
100
AcDbLine
 10
830.1367399304066
 20
244.4993465
 30
0.0
 11
830.1367399304066
 21
246.0993465
 31
0.0
  0
ARC
  5
A03
330
70
100
AcDbEntity
  8
Visible
100
AcDbCircle
 10
829.9367399304065
 20
246.0993465
 30
0.0
 40
0.2000000000001778
100
AcDbArc
 50
0.0
 51
90.0
  0
LINE
  5
A04
330
70
100
AcDbEntity
  8
Visible
100
AcDbLine
 10
829.9367399304065
 20
246.2993465
 30
0.0
 11
828.7367399304065
 21
246.2993465
 31
0.0
  0
ARC
  5
A05
330
70
100
AcDbEntity
  8
Visible
100
AcDbCircle
 10
828.7367399304065
 20
246.1993464999999
 30
0.0
 40
0.0999999999998303
100
AcDbArc
 50
90.0
 51
219.4860180000003
  0
LINE
  5
A06
330
70
100
AcDbEntity
  8
Visible
100
AcDbLine
 10
828.6595624304066
 20
246.135759
 30
0.0
 11
828.8226299304065
 21
245.937844
 31
0.0
  0
ARC
  5
A07
330
70
100
AcDbEntity
  8
Visible
100
AcDbCircle
 10
-828.4367399304064
 20
245.619899
 30
0.0
 40
0.5000000000001341
210
0.0
220
0.0
230
-1.0
100
AcDbArc
 50
140.5139820000002
 51
180.0
  0
LINE
  5
A08
330
70
100
AcDbEntity
  8
Visible
100
AcDbLine
 10
828.9367399304065
 20
245.619899
 30
0.0
 11
828.9367399304065
 21
244.113044
 31
0.0
  0
LINE
  5
A09
330
70
100
AcDbEntity
  8
Visible
100
AcDbLine
 10
828.9367399304065
 20
244.113044
 30
0.0
 11
828.5246074304065
 21
243.7009115
 31
0.0
  0
ARC
  5
A0A
330
70
100
AcDbEntity
  8
Visible
100
AcDbCircle
 10
828.7367399304065
 20
243.4887789999999
 30
0.0
 40
0.3000000000000603
100
AcDbArc
 50
135.0000000000002
 51
180.0
  0
LINE
  5
A0B
330
70
100
AcDbEntity
  8
Visible
100
AcDbLine
 10
828.4367399304064
 20
243.4887789999999
 30
0.0
 11
828.4367399304064
 21
243.3130439999999
 31
0.0
  0
LINE
  5
A0C
330
70
100
AcDbEntity
  8
Visible
100
AcDbLine
 10
828.4367399304064
 20
243.3130439999999
 30
0.0
 11
828.9367399304065
 21
243.3130439999999
 31
0.0
  0
LINE
  5
A0D
330
70
100
AcDbEntity
  8
Visible
100
AcDbLine
 10
828.9367399304065
 20
243.3130439999999
 30
0.0
 11
828.9367399304065
 21
232.4023264999999
 31
0.0
  0
LINE
  5
A0E
330
70
100
AcDbEntity
  8
Visible
100
AcDbLine
 10
828.9367399304065
 20
232.4023264999999
 30
0.0
 11
826.6367399304066
 21
232.4023264999999
 31
0.0
  0
LINE
  5
A0F
330
70
100
AcDbEntity
  8
Visible
100
AcDbLine
 10
826.6367399304066
 20
232.4023264999999
 30
0.0
 11
826.3367399304064
 21
232.1023265
 31
0.0
  0
LINE
  5
A10
330
70
100
AcDbEntity
  8
Visible
100
AcDbLine
 10
826.3367399304064
 20
232.1023265
 30
0.0
 11
826.0367399304065
 21
232.4023264999999
 31
0.0
  0
LINE
  5
10A8
330
70
100
AcDbEntity
  8
Visible
100
AcDbLine
 10
813.0367399304065
 20
239.1453176682658
 30
0.0
 11
812.4401974304065
 21
239.5275565
 31
0.0
  0
ENDSEC
  0
SECTION
  2
OBJECTS
  0
DICTIONARY
  5
C
330
0
100
AcDbDictionary
281
     1
  3
ACAD_CIP_PREVIOUS_PRODUCT_INFO
350
BC8
  3
ACAD_COLOR
350
63
  3
ACAD_DETAILVIEWSTYLE
350
6A
  3
ACAD_FIELDLIST
350
58D
  3
ACAD_GROUP
350
D
  3
ACAD_LAYOUT
350
62
  3
ACAD_MATERIAL
350
10
  3
ACAD_MLEADERSTYLE
350
66
  3
ACAD_MLINESTYLE
350
5F
  3
ACAD_PLOTSETTINGS
350
61
  3
ACAD_PLOTSTYLENAME
350
E
  3
ACAD_SCALELIST
350
42
  3
ACAD_SECTIONVIEWSTYLE
350
68
  3
ACAD_TABLESTYLE
350
64
  3
ACAD_VISUALSTYLE
350
29
  3
ACDB_RECOMPOSE_DATA
350
11A0
  3
AcDbVariableDictionary
350
BB0
  0
DICTIONARY
  5
AE
330
70
100
AcDbDictionary
280
     1
281
     1
  3
ACAD_SORTENTS
360
AF
  0
DICTIONARY
  5
43F
330
43E
100
AcDbDictionary
280
     1
281
     1
  0
DICTIONARY
  5
485
330
484
100
AcDbDictionary
280
     1
281
     1
  3
ACAD_SORTENTS
360
75C
  0
DICTIONARY
  5
4A0
330
49F
100
AcDbDictionary
280
     1
281
     1
  0
DICTIONARY
  5
4A2
330
4A1
100
AcDbDictionary
280
     1
281
     1
  0
DICTIONARY
  5
4A4
330
4A3
100
AcDbDictionary
280
     1
281
     1
  0
DICTIONARY
  5
4A6
330
4A5
100
AcDbDictionary
280
     1
281
     1
  0
DICTIONARY
  5
4A8
330
4A7
100
AcDbDictionary
280
     1
281
     1
  0
DICTIONARY
  5
4AA
330
4A9
100
AcDbDictionary
280
     1
281
     1
  0
DICTIONARY
  5
4AC
330
4AB
100
AcDbDictionary
280
     1
281
     1
  0
DICTIONARY
  5
4AE
330
4AD
100
AcDbDictionary
280
     1
281
     1
  0
DICTIONARY
  5
4B0
330
4AF
100
AcDbDictionary
280
     1
281
     1
  0
DICTIONARY
  5
4B2
330
4B1
100
AcDbDictionary
280
     1
281
     1
  0
DICTIONARY
  5
4B4
330
4B3
100
AcDbDictionary
280
     1
281
     1
  0
DICTIONARY
  5
4B6
330
4B5
100
AcDbDictionary
280
     1
281
     1
  0
DICTIONARY
  5
4B8
330
4B7
100
AcDbDictionary
280
     1
281
     1
  0
DICTIONARY
  5
4BA
330
4B9
100
AcDbDictionary
280
     1
281
     1
  0
DICTIONARY
  5
4BC
330
4BB
100
AcDbDictionary
280
     1
281
     1
  0
XRECORD
  5
BC8
102
{ACAD_REACTORS
330
C
102
}
330
C
100
AcDbXrecord
280
     1
300
ACD
300
2023
300

  0
DICTIONARY
  5
63
102
{ACAD_REACTORS
330
C
102
}
330
C
100
AcDbDictionary
281
     1
  0
DICTIONARY
  5
6A
102
{ACAD_REACTORS
330
C
102
}
330
C
100
AcDbDictionary
281
     1
  3
Imperial24
350
6B
  3
Metric50
350
BC2
  0
FIELDLIST
  5
58D
102
{ACAD_REACTORS
330
C
102
}
330
C
100
AcDbIdSet
 90
        0
100
AcDbFieldList
  0
DICTIONARY
  5
D
102
{ACAD_REACTORS
330
C
102
}
330
C
100
AcDbDictionary
281
     1
  0
DICTIONARY
  5
62
102
{ACAD_REACTORS
330
C
102
}
330
C
100
AcDbDictionary
281
     1
  3
Model
350
73
  3
シート1
350
6F
  3
シート2
350
77
  0
DICTIONARY
  5
10
102
{ACAD_REACTORS
330
C
102
}
330
C
100
AcDbDictionary
281
     1
  3
ByBlock
350
19
  3
ByLayer
350
11
  3
Global
350
21
  0
DICTIONARY
  5
66
102
{ACAD_REACTORS
330
C
102
}
330
C
100
AcDbDictionary
281
     1
  3
Standard
350
67
  0
DICTIONARY
  5
5F
102
{ACAD_REACTORS
330
C
102
}
330
C
100
AcDbDictionary
281
     1
  3
Standard
350
60
  0
DICTIONARY
  5
61
102
{ACAD_REACTORS
330
C
102
}
330
C
100
AcDbDictionary
281
     1
  0
ACDBDICTIONARYWDFLT
  5
E
102
{ACAD_REACTORS
330
C
102
}
330
C
100
AcDbDictionary
281
     1
  3
Normal
350
F
100
AcDbDictionaryWithDefault
340
F
  0
DICTIONARY
  5
42
102
{ACAD_REACTORS
330
C
102
}
330
C
100
AcDbDictionary
281
     1
  3
*A1
350
AC
  3
*A2
350
AD
  3
A0
350
43
  3
A1
350
44
  3
A2
350
45
  3
A3
350
46
  3
A4
350
47
  3
A5
350
48
  3
A6
350
49
  3
A7
350
4A
  3
A8
350
4B
  3
A9
350
4C
  3
B0
350
4D
  3
B1
350
4E
  3
B2
350
4F
  3
B3
350
50
  3
B4
350
51
  3
B5
350
52
  3
B6
350
53
  0
DICTIONARY
  5
68
102
{ACAD_REACTORS
330
C
102
}
330
C
100
AcDbDictionary
281
     1
  3
Imperial24
350
69
  3
Metric50
350
BC1
  0
DICTIONARY
  5
64
102
{ACAD_REACTORS
330
C
102
}
330
C
100
AcDbDictionary
281
     1
  3
Standard
350
65
  0
DICTIONARY
  5
29
102
{ACAD_REACTORS
330
C
102
}
330
C
100
AcDbDictionary
281
     1
  3
2dWireframe
350
2F
  3
Basic
350
2E
  3
Brighten
350
35
  3
ColorChange
350
39
  3
Conceptual
350
32
  3
Dim
350
34
  3
EdgeColorOff
350
41
  3
Facepattern
350
38
  3
Flat
350
2A
  3
FlatWithEdges
350
2B
  3
Gouraud
350
2C
  3
GouraudWithEdges
350
2D
  3
Hidden
350
31
  3
JitterOff
350
3F
  3
Linepattern
350
37
  3
OverhangOff
350
40
  3
Realistic
350
33
  3
Shaded
350
3E
  3
Shaded with edges
350
3D
  3
Shades of Gray
350
3A
  3
Sketchy
350
3B
  3
Thicken
350
36
  3
Wireframe
350
30
  3
X-Ray
350
3C
  0
XRECORD
  5
11A0
102
{ACAD_REACTORS
330
C
102
}
330
C
100
AcDbXrecord
280
     1
 90
        1
330
65
  0
DICTIONARY
  5
BB0
102
{ACAD_REACTORS
330
C
102
}
330
C
100
AcDbDictionary
281
     1
  3
ANNOALLVISIBLE
350
BB5
  3
CANNOSCALE
350
BB6
  3
CMLEADERSTYLE
350
BB2
  3
CTABLESTYLE
350
BB1
  3
CVIEWDETAILSTYLE
350
BB3
  3
CVIEWSECTIONSTYLE
350
BB4
  0
SORTENTSTABLE
  5
AF
102
{ACAD_REACTORS
330
AE
102
}
330
AE
100
AcDbSortentsTable
330
70
331
984
  5
986
331
985
  5
987
331
986
  5
988
331
987
  5
989
331
988
  5
98A
331
989
  5
98B
331
98A
  5
98C
331
98B
  5
98D
331
98C
  5
98E
331
98D
  5
98F
331
98E
  5
990
331
98F
  5
991
331
990
  5
992
331
991
  5
993
331
992
  5
994
331
993
  5
995
331
994
  5
996
331
995
  5
997
331
996
  5
998
331
998
  5
99A
331
999
  5
99B
331
99A
  5
99C
331
99B
  5
99D
331
99C
  5
99E
331
99D
  5
99F
331
99E
  5
9A0
331
99F
  5
9A1
331
9A0
  5
9A2
331
9A1
  5
9A3
331
9A2
  5
9A4
331
9A3
  5
9A5
331
9A4
  5
9A6
331
9A5
  5
9A7
331
9A6
  5
9A8
331
9A7
  5
9A9
331
9A8
  5
9AA
331
9A9
  5
9AB
331
9AA
  5
9AC
331
9AB
  5
9AD
331
9AC
  5
9AE
331
9AD
  5
9AF
331
9AE
  5
9B0
331
9AF
  5
9B1
331
9B0
  5
9B2
331
9B1
  5
9B3
331
9B2
  5
9B4
331
9B3
  5
9B5
331
9B4
  5
9B6
331
9B5
  5
9B7
331
9B6
  5
9B8
331
9B7
  5
9B9
331
9B8
  5
9BA
331
9B9
  5
9BB
331
9BA
  5
9BC
331
9BB
  5
9BD
331
9BC
  5
9BE
331
9BD
  5
9BF
331
9BE
  5
9C0
331
9BF
  5
9C1
331
9C0
  5
9C2
331
9C1
  5
9C3
331
9C2
  5
9C4
331
9C3
  5
9C5
331
9C4
  5
9C6
331
9C5
  5
9C7
331
9C6
  5
9C8
331
9C7
  5
9C9
331
9C8
  5
9CA
331
9C9
  5
9CB
331
9CA
  5
9CC
331
9CB
  5
9CD
331
9CC
  5
9CE
331
9CD
  5
9CF
331
9CE
  5
9D0
331
9CF
  5
9D1
331
9D0
  5
9D2
331
9D1
  5
9D3
331
9D2
  5
9D4
331
9D3
  5
9D5
331
9D4
  5
9D6
331
9D5
  5
9D7
331
9D6
  5
9D8
331
9D7
  5
9D9
331
9D8
  5
9DA
331
9D9
  5
9DB
331
9DA
  5
9DC
331
9DB
  5
9DD
331
9DC
  5
9DE
331
9DD
  5
9DF
331
9DE
  5
9E0
331
9DF
  5
9E1
331
9E0
  5
9E2
331
9E1
  5
9E3
331
9E2
  5
9E4
331
9E3
  5
9E5
331
9E4
  5
9E6
331
9E5
  5
9E7
331
9E6
  5
9E8
331
9E7
  5
9E9
331
9E8
  5
9EA
331
9E9
  5
9EB
331
9EA
  5
9EC
331
9EB
  5
9ED
331
9EC
  5
9EE
331
9ED
  5
9EF
331
9EE
  5
9F0
331
9EF
  5
9F1
331
9F0
  5
9F2
331
9F1
  5
9F3
331
9F2
  5
9F4
331
9F3
  5
9F5
331
9F4
  5
9F6
331
9F5
  5
9F7
331
9F6
  5
9F8
331
9F7
  5
9F9
331
9F8
  5
9FA
331
9F9
  5
9FB
331
9FA
  5
9FC
331
9FB
  5
9FD
331
9FC
  5
9FE
331
9FD
  5
9FF
331
9FE
  5
A00
331
9FF
  5
A01
331
A00
  5
A02
331
A01
  5
A03
331
A02
  5
A04
331
A03
  5
A05
331
A04
  5
A06
331
A05
  5
A07
331
A06
  5
A08
331
A07
  5
A09
331
A08
  5
A0A
331
A09
  5
A0B
331
A0A
  5
A0C
331
A0B
  5
A0D
331
A0C
  5
A0E
331
A0D
  5
A0F
331
A0E
  5
A10
331
A0F
  5
10A7
331
A10
  5
10A8
331
10A8
  5
985
  0
SORTENTSTABLE
  5
75C
102
{ACAD_REACTORS
330
485
102
}
330
485
100
AcDbSortentsTable
330
484
  0
ACDBDETAILVIEWSTYLE
  5
6B
102
{ACAD_REACTORS
330
6A
102
}
330
6A
100
AcDbModelDocViewStyle
 70
     0
  3
Imperial24
290
     0
300
Imperial24
 90
        0
100
AcDbDetailViewStyle
 70
     0
 71
     0
 90
        3
 71
     1
340
55
 62
   256
 40
0.24
340
0
 62
   256
 40
0.24
300

 40
0.36
280
     3
 71
     2
340
5D
 90
       25
 62
   256
 71
     3
340
55
 62
   256
 40
0.24
 90
        1
 40
0.75
 90
        1
300
%<\AcVar ViewType \f "%tc1">% %<\AcVar ViewDetailId>%\P尺度 %<\AcVar ViewScale \f "%sn">%
 71
     4
340
5D
 90
       25
 62
   256
340
5D
 90
       25
 62
   256
280
     0
  0
ACDBDETAILVIEWSTYLE
  5
BC2
102
{ACAD_REACTORS
330
6A
102
}
330
6A
100
AcDbModelDocViewStyle
 70
     0
  3
Metric50
290
     0
300
Metric50
 90
        0
100
AcDbDetailViewStyle
 70
     0
 71
     0
 90
        3
 71
     1
340
55
 62
   256
 40
5.0
340
0
 62
   256
 40
5.0
300

 40
0.0
280
     1
 71
     2
340
5D
 90
       25
 62
   256
 71
     3
340
55
 62
   256
 40
5.0
 90
        0
 40
15.0
 90
        1
300
%<\AcVar ViewDetailId>% (%<\AcVar ViewScale \f "%sn">%)
 71
     4
340
5D
 90
       25
 62
   256
340
5D
 90
       25
 62
   256
280
     0
  0
LAYOUT
  5
73
102
{ACAD_REACTORS
330
62
102
}
330
62
100
AcDbPlotSettings
  1

  2
AutoCAD PDF (High Quality Print).pc3
  4
ISO_full_bleed_A3_(420.00_x_297.00_MM)
  6

 40
0.0
 41
0.0
 42
0.0
 43
0.0
 44
420.0
 45
297.0
 46
0.0
 47
0.0
 48
0.0
 49
0.0
140
0.0
141
0.0
142
1.0
143
1.202358999999999
 70
 11952
 72
     1
 73
     0
 74
     0
  7

 75
     0
147
0.8316979999999999
 76
     0
 77
     2
 78
   300
148
42.940195
149
12.790271
100
AcDbLayout
  1
Model
 70
     1
 71
     0
 10
0.0
 20
0.0
 11
12.0
 21
9.0
 12
0.0
 22
0.0
 32
0.0
 14
0.0
 24
0.0
 34
0.0
 15
0.0
 25
0.0
 35
0.0
146
0.0
 13
0.0
 23
0.0
 33
0.0
 16
1.0
 26
0.0
 36
0.0
 17
0.0
 27
1.0
 37
0.0
 76
     0
330
70
331
57
1001
ACAD_PSEXT
1000
AutoCAD PDF (High Quality Print).pc3
1000
DWG To PDF
1000
ファイル
1000

1070
     0
  0
LAYOUT
  5
6F
102
{ACAD_REACTORS
330
62
102
}
330
62
100
AcDbPlotSettings
  1

  2
None
  4

  6

 40
0.0
 41
0.0
 42
0.0
 43
0.0
 44
0.0
 45
0.0
 46
0.0
 47
0.0
 48
0.0
 49
0.0
140
0.0
141
0.0
142
1.0
143
1.0
 70
   688
 72
     0
 73
     0
 74
     5
  7

 75
    16
147
1.0
 76
     0
 77
     2
 78
   300
148
0.0
149
0.0
100
AcDbLayout
  1
シート1
 70
     1
 71
     1
 10
0.0
 20
0.0
 11
12.0
 21
9.0
 12
0.0
 22
0.0
 32
0.0
 14
1.000000000000000E+20
 24
1.000000000000000E+20
 34
1.000000000000000E+20
 15
-1.000000000000000E+20
 25
-1.000000000000000E+20
 35
-1.000000000000000E+20
146
0.0
 13
0.0
 23
0.0
 33
0.0
 16
1.0
 26
0.0
 36
0.0
 17
0.0
 27
1.0
 37
0.0
 76
     0
330
6C
  0
LAYOUT
  5
77
102
{ACAD_REACTORS
330
62
102
}
330
62
100
AcDbPlotSettings
  1

  2
None
  4

  6

 40
0.0
 41
0.0
 42
0.0
 43
0.0
 44
0.0
 45
0.0
 46
0.0
 47
0.0
 48
0.0
 49
0.0
140
0.0
141
0.0
142
1.0
143
1.0
 70
   688
 72
     0
 73
     0
 74
     5
  7

 75
    16
147
1.0
 76
     0
 77
     2
 78
   300
148
0.0
149
0.0
100
AcDbLayout
  1
シート2
 70
     1
 71
     2
 10
0.0
 20
0.0
 11
12.0
 21
9.0
 12
0.0
 22
0.0
 32
0.0
 14
0.0
 24
0.0
 34
0.0
 15
0.0
 25
0.0
 35
0.0
146
0.0
 13
0.0
 23
0.0
 33
0.0
 16
1.0
 26
0.0
 36
0.0
 17
0.0
 27
1.0
 37
0.0
 76
     0
330
74
  0
MATERIAL
  5
19
102
{ACAD_XDICTIONARY
360
1A
102
}
102
{ACAD_REACTORS
330
10
102
}
330
10
100
AcDbMaterial
  1
ByBlock
 72
     0
 43
0.020833
 43
0.0
 43
0.0
 43
0.0
 43
0.0
 43
0.020833
 43
0.0
 43
0.0
 43
0.0
 43
0.0
 43
1.0
 43
0.0
 43
0.0
 43
0.0
 43
0.0
 43
1.0
 77
     0
 47
0.020833
 47
0.0
 47
0.0
 47
0.0
 47
0.0
 47
0.020833
 47
0.0
 47
0.0
 47
0.0
 47
0.0
 47
1.0
 47
0.0
 47
0.0
 47
0.0
 47
0.0
 47
1.0
171
     0
 49
0.020833
 49
0.0
 49
0.0
 49
0.0
 49
0.0
 49
0.020833
 49
0.0
 49
0.0
 49
0.0
 49
0.0
 49
1.0
 49
0.0
 49
0.0
 49
0.0
 49
0.0
 49
1.0
175
     0
142
0.020833
142
0.0
142
0.0
142
0.0
142
0.0
142
0.020833
142
0.0
142
0.0
142
0.0
142
0.0
142
1.0
142
0.0
142
0.0
142
0.0
142
0.0
142
1.0
179
     0
144
0.020833
144
0.0
144
0.0
144
0.0
144
0.0
144
0.020833
144
0.0
144
0.0
144
0.0
144
0.0
144
1.0
144
0.0
144
0.0
144
0.0
144
0.0
144
1.0
147
0.020833
147
0.0
147
0.0
147
0.0
147
0.0
147
0.020833
147
0.0
147
0.0
147
0.0
147
0.0
147
1.0
147
0.0
147
0.0
147
0.0
147
0.0
147
1.0
  0
MATERIAL
  5
11
102
{ACAD_XDICTIONARY
360
12
102
}
102
{ACAD_REACTORS
330
10
102
}
330
10
100
AcDbMaterial
  1
ByLayer
 72
     0
 43
0.020833
 43
0.0
 43
0.0
 43
0.0
 43
0.0
 43
0.020833
 43
0.0
 43
0.0
 43
0.0
 43
0.0
 43
1.0
 43
0.0
 43
0.0
 43
0.0
 43
0.0
 43
1.0
 77
     0
 47
0.020833
 47
0.0
 47
0.0
 47
0.0
 47
0.0
 47
0.020833
 47
0.0
 47
0.0
 47
0.0
 47
0.0
 47
1.0
 47
0.0
 47
0.0
 47
0.0
 47
0.0
 47
1.0
171
     0
 49
0.020833
 49
0.0
 49
0.0
 49
0.0
 49
0.0
 49
0.020833
 49
0.0
 49
0.0
 49
0.0
 49
0.0
 49
1.0
 49
0.0
 49
0.0
 49
0.0
 49
0.0
 49
1.0
175
     0
142
0.020833
142
0.0
142
0.0
142
0.0
142
0.0
142
0.020833
142
0.0
142
0.0
142
0.0
142
0.0
142
1.0
142
0.0
142
0.0
142
0.0
142
0.0
142
1.0
179
     0
144
0.020833
144
0.0
144
0.0
144
0.0
144
0.0
144
0.020833
144
0.0
144
0.0
144
0.0
144
0.0
144
1.0
144
0.0
144
0.0
144
0.0
144
0.0
144
1.0
147
0.020833
147
0.0
147
0.0
147
0.0
147
0.0
147
0.020833
147
0.0
147
0.0
147
0.0
147
0.0
147
1.0
147
0.0
147
0.0
147
0.0
147
0.0
147
1.0
  0
MATERIAL
  5
21
102
{ACAD_XDICTIONARY
360
22
102
}
102
{ACAD_REACTORS
330
10
102
}
330
10
100
AcDbMaterial
  1
Global
 72
     0
 43
0.020833
 43
0.0
 43
0.0
 43
0.0
 43
0.0
 43
0.020833
 43
0.0
 43
0.0
 43
0.0
 43
0.0
 43
1.0
 43
0.0
 43
0.0
 43
0.0
 43
0.0
 43
1.0
 77
     0
 47
0.020833
 47
0.0
 47
0.0
 47
0.0
 47
0.0
 47
0.020833
 47
0.0
 47
0.0
 47
0.0
 47
0.0
 47
1.0
 47
0.0
 47
0.0
 47
0.0
 47
0.0
 47
1.0
171
     0
 49
0.020833
 49
0.0
 49
0.0
 49
0.0
 49
0.0
 49
0.020833
 49
0.0
 49
0.0
 49
0.0
 49
0.0
 49
1.0
 49
0.0
 49
0.0
 49
0.0
 49
0.0
 49
1.0
175
     0
142
0.020833
142
0.0
142
0.0
142
0.0
142
0.0
142
0.020833
142
0.0
142
0.0
142
0.0
142
0.0
142
1.0
142
0.0
142
0.0
142
0.0
142
0.0
142
1.0
179
     0
144
0.020833
144
0.0
144
0.0
144
0.0
144
0.0
144
0.020833
144
0.0
144
0.0
144
0.0
144
0.0
144
1.0
144
0.0
144
0.0
144
0.0
144
0.0
144
1.0
147
0.020833
147
0.0
147
0.0
147
0.0
147
0.0
147
0.020833
147
0.0
147
0.0
147
0.0
147
0.0
147
1.0
147
0.0
147
0.0
147
0.0
147
0.0
147
1.0
  0
MLEADERSTYLE
  5
67
102
{ACAD_REACTORS
330
66
102
}
330
66
100
AcDbMLeaderStyle
179
     2
170
     2
171
     1
172
     0
 90
        2
 40
0.0
 41
0.0
173
     1
 91
-1056964608
340
5B
 92
       -2
290
     1
 42
0.09
291
     1
 43
0.36
  3
Standard
 44
0.18
300

342
55
174
     1
178
     6
175
     1
176
     0
 93
-1056964608
 45
0.18
292
     0
297
     0
 46
0.18
 94
-1056964608
 47
1.0
 49
1.0
140
1.0
293
     1
141
0.0
294
     1
177
     0
142
1.0
295
     0
296
     0
143
0.125
271
     0
272
     9
273
     9
298
     1
  0
MLINESTYLE
  5
60
102
{ACAD_REACTORS
330
5F
102
}
330
5F
100
AcDbMlineStyle
  2
STANDARD
 70
     0
  3

 62
   256
 51
90.0
 52
90.0
 71
     0
  0
ACDBPLACEHOLDER
  5
F
102
{ACAD_REACTORS
330
E
102
}
330
E
  0
SCALE
  5
AC
102
{ACAD_REACTORS
330
42
102
}
330
42
100
AcDbScale
 70
     0
300
1:2.5
140
0.4
141
1.0
290
     0
  0
SCALE
  5
AD
102
{ACAD_REACTORS
330
42
102
}
330
42
100
AcDbScale
 70
     0
300
1.5
140
1.5
141
1.0
290
     0
  0
SCALE
  5
43
102
{ACAD_REACTORS
330
42
102
}
330
42
100
AcDbScale
 70
     0
300
1:1
140
1.0
141
1.0
290
     1
  0
SCALE
  5
44
102
{ACAD_REACTORS
330
42
102
}
330
42
100
AcDbScale
 70
     0
300
1:2
140
1.0
141
2.0
290
     0
  0
SCALE
  5
45
102
{ACAD_REACTORS
330
42
102
}
330
42
100
AcDbScale
 70
     0
300
1:4
140
1.0
141
4.0
290
     0
  0
SCALE
  5
46
102
{ACAD_REACTORS
330
42
102
}
330
42
100
AcDbScale
 70
     0
300
1:5
140
1.0
141
5.0
290
     0
  0
SCALE
  5
47
102
{ACAD_REACTORS
330
42
102
}
330
42
100
AcDbScale
 70
     0
300
1:8
140
1.0
141
8.0
290
     0
  0
SCALE
  5
48
102
{ACAD_REACTORS
330
42
102
}
330
42
100
AcDbScale
 70
     0
300
1:10
140
1.0
141
10.0
290
     0
  0
SCALE
  5
49
102
{ACAD_REACTORS
330
42
102
}
330
42
100
AcDbScale
 70
     0
300
1:16
140
1.0
141
16.0
290
     0
  0
SCALE
  5
4A
102
{ACAD_REACTORS
330
42
102
}
330
42
100
AcDbScale
 70
     0
300
1:20
140
1.0
141
20.0
290
     0
  0
SCALE
  5
4B
102
{ACAD_REACTORS
330
42
102
}
330
42
100
AcDbScale
 70
     0
300
1:30
140
1.0
141
30.0
290
     0
  0
SCALE
  5
4C
102
{ACAD_REACTORS
330
42
102
}
330
42
100
AcDbScale
 70
     0
300
1:40
140
1.0
141
40.0
290
     0
  0
SCALE
  5
4D
102
{ACAD_REACTORS
330
42
102
}
330
42
100
AcDbScale
 70
     0
300
1:50
140
1.0
141
50.0
290
     0
  0
SCALE
  5
4E
102
{ACAD_REACTORS
330
42
102
}
330
42
100
AcDbScale
 70
     0
300
1:100
140
1.0
141
100.0
290
     0
  0
SCALE
  5
4F
102
{ACAD_REACTORS
330
42
102
}
330
42
100
AcDbScale
 70
     0
300
2:1
140
2.0
141
1.0
290
     0
  0
SCALE
  5
50
102
{ACAD_REACTORS
330
42
102
}
330
42
100
AcDbScale
 70
     0
300
4:1
140
4.0
141
1.0
290
     0
  0
SCALE
  5
51
102
{ACAD_REACTORS
330
42
102
}
330
42
100
AcDbScale
 70
     0
300
8:1
140
8.0
141
1.0
290
     0
  0
SCALE
  5
52
102
{ACAD_REACTORS
330
42
102
}
330
42
100
AcDbScale
 70
     0
300
10:1
140
10.0
141
1.0
290
     0
  0
SCALE
  5
53
102
{ACAD_REACTORS
330
42
102
}
330
42
100
AcDbScale
 70
     0
300
100:1
140
100.0
141
1.0
290
     0
  0
ACDBSECTIONVIEWSTYLE
  5
69
102
{ACAD_REACTORS
330
68
102
}
330
68
100
AcDbModelDocViewStyle
 70
     0
  3
Imperial24
290
     0
300
Imperial24
 90
        0
100
AcDbSectionViewStyle
 70
     0
 71
     0
 90
       78
 71
     1
340
55
 62
   256
 40
0.24
340
0
340
0
 62
   256
 40
0.24
300
I, O, Q, S, X, Z
 40
0.48
 90
        3
 40
0.18
 90
        1
 71
     2
340
5D
 90
       25
 62
   256
340
5D
 90
       50
 62
   256
 40
0.24
 40
0.0
 40
0.24
 71
     3
340
55
 62
   256
 40
0.24
 90
        1
 40
0.75
 90
        1
300
%<\AcVar ViewType \f "%tc1">% %<\AcVar ViewSectionStartId>%-%<\AcVar ViewSectionEndId>%\P尺度 %<\AcVar ViewScale \f "%sn">%
 71
     4
 62
   256
 62
   257
300
ANSI31
 40
1.0
 90
        0
290
     0
290
     0
 90
        6
 40
0.0
 40
1.570795999999999
 40
0.261799
 40
1.308996999999999
 40
-0.261799
 40
1.832595999999999
  0
ACDBSECTIONVIEWSTYLE
  5
BC1
102
{ACAD_REACTORS
330
68
102
}
330
68
100
AcDbModelDocViewStyle
 70
     0
  3
Metric50
290
     0
300
Metric50
 90
        0
100
AcDbSectionViewStyle
 70
     0
 71
     0
 90
      102
 71
     1
340
55
 62
   256
 40
5.0
340
0
340
0
 62
   256
 40
5.0
300
I, O, Q, S, X, Z
 40
10.0
 90
        0
 40
2.5
 90
        0
 71
     2
340
5D
 90
       25
 62
   256
340
5D
 90
       50
 62
   256
 40
5.0
 40
2.5
 40
5.0
 71
     3
340
55
 62
   256
 40
5.0
 90
        0
 40
15.0
 90
        1
300
%<\AcVar ViewSectionStartId>%-%<\AcVar ViewSectionEndId>% (%<\AcVar ViewScale \f "%sn">%)
 71
     4
 62
   256
 62
   257
300
ANSI31
 40
1.0
 90
        0
290
     0
290
     0
 90
        6
 40
0.0
 40
1.570796326794896
 40
0.2617993877991494
 40
1.308996938995747
 40
-0.2617993877991494
 40
1.832595714594046
  0
TABLESTYLE
  5
65
102
{ACAD_XDICTIONARY
360
BB7
102
}
102
{ACAD_REACTORS
330
64
102
}
330
64
100
AcDbTableStyle
280
     0
  3
Standard
 70
     0
 71
     0
 40
1.5
 41
1.5
280
     0
281
     0
  7
Standard
140
0.18
170
     2
 62
     0
 63
     7
283
     0
 90
      512
 91
        0
  1

274
    -2
284
     1
 64
     0
275
    -2
285
     1
 65
     0
276
    -2
286
     1
 66
     0
277
    -2
287
     1
 67
     0
278
    -2
288
     1
 68
     0
279
    -2
289
     1
 69
     0
  7
Standard
140
0.25
170
     5
 62
     0
 63
     7
283
     0
 90
      512
 91
        0
  1

274
    -2
284
     1
 64
     0
275
    -2
285
     1
 65
     0
276
    -2
286
     1
 66
     0
277
    -2
287
     1
 67
     0
278
    -2
288
     1
 68
     0
279
    -2
289
     1
 69
     0
  7
Standard
140
0.18
170
     5
 62
     0
 63
     7
283
     0
 90
      512
 91
        0
  1

274
    -2
284
     1
 64
     0
275
    -2
285
     1
 65
     0
276
    -2
286
     1
 66
     0
277
    -2
287
     1
 67
     0
278
    -2
288
     1
 68
     0
279
    -2
289
     1
 69
     0
  0
VISUALSTYLE
  5
2F
102
{ACAD_REACTORS
330
29
102
}
330
29
100
AcDbVisualStyle
  2
2dWireframe
 70
     4
177
     3
291
     0
 70
    58
 90
        0
176
     1
 90
        2
176
     1
 90
        0
176
     1
 90
        0
176
     1
 40
0.6
176
     1
 40
30.0
176
     1
 62
     7
420
 16777215
176
     1
 90
        1
176
     1
 90
        4
176
     1
 62
     7
176
     1
 62
   257
176
     1
 90
        1
176
     1
 90
        1
176
     1
 40
1.0
176
     1
 90
        0
176
     1
 62
   257
176
     1
 40
1.0
176
     1
 90
        1
176
     1
 90
        6
176
     1
 90
        2
176
     1
 62
     7
176
     1
 90
        5
176
     1
 90
        0
176
     1
 90
        0
176
     1
290
     0
176
     1
 90
        1
176
     1
 40
0.0
176
     1
 90
        0
176
     1
290
     1
176
     1
290
     1
176
     1
290
     0
176
     1
290
     0
176
     1
290
     0
176
     1
290
     0
176
     1
290
     0
176
     1
290
     0
176
     1
290
     0
176
     1
 90
       50
176
     1
 40
0.0
176
     1
 40
1.0
176
     1
 90
        0
176
     1
 62
    18
176
     1
 90
       50
176
     1
 90
        3
176
     1
 62
     5
420
      255
176
     1
290
     0
176
     1
 90
       50
176
     1
 90
       50
176
     1
 90
       50
176
     1
290
     0
176
     1
 90
       50
176
     1
 62
   256
176
     0
 40
1.0
176
     0
 90
        2
176
     1
  1
strokes_ogs.tif
176
     1
290
     0
176
     1
 40
1.0
176
     1
 40
1.0
176
     1
1001
ACAD
1000
AcDbSavedByObjectVersion
1070
     0
  0
VISUALSTYLE
  5
2E
102
{ACAD_REACTORS
330
29
102
}
330
29
100
AcDbVisualStyle
  2
Basic
 70
     7
177
     3
291
     1
 70
    58
 90
        1
176
     1
 90
        0
176
     1
 90
        1
176
     1
 90
        0
176
     1
 40
0.6
176
     1
 40
30.0
176
     1
 62
     7
420
 16777215
176
     1
 90
        0
176
     1
 90
        4
176
     1
 62
     7
176
     1
 62
   257
176
     1
 90
        1
176
     1
 90
        1
176
     1
 40
1.0
176
     1
 90
        8
176
     1
 62
     7
176
     1
 40
1.0
176
     1
 90
        1
176
     1
 90
        6
176
     1
 90
        2
176
     1
 62
     7
176
     1
 90
        5
176
     1
 90
        0
176
     1
 90
        0
176
     1
290
     0
176
     1
 90
        1
176
     1
 40
0.0
176
     1
 90
        0
176
     1
290
     0
176
     1
290
     1
176
     1
290
     1
176
     1
290
     0
176
     1
290
     0
176
     1
290
     0
176
     1
290
     0
176
     1
290
     0
176
     1
290
     0
176
     1
 90
       50
176
     1
 40
0.0
176
     1
 40
1.0
176
     1
 90
        0
176
     1
 62
    18
176
     1
 90
       50
176
     1
 90
        3
176
     1
 62
     5
420
      255
176
     1
290
     0
176
     1
 90
       50
176
     1
 90
       50
176
     1
 90
       50
176
     1
290
     0
176
     1
 90
       50
176
     1
 62
   256
176
     0
 40
1.0
176
     0
 90
        2
176
     1
  1
strokes_ogs.tif
176
     1
290
     0
176
     1
 40
1.0
176
     1
 40
1.0
176
     1
1001
ACAD
1000
AcDbSavedByObjectVersion
1070
     0
  0
VISUALSTYLE
  5
35
102
{ACAD_REACTORS
330
29
102
}
330
29
100
AcDbVisualStyle
  2
Brighten
 70
    12
177
     3
291
     1
 70
    58
 90
        2
176
     1
 90
        2
176
     1
 90
        0
176
     1
 90
        0
176
     1
 40
0.6
176
     1
 40
30.0
176
     1
 62
     7
420
 16777215
176
     1
 90
        1
176
     1
 90
        4
176
     1
 62
     7
176
     1
 62
   257
176
     1
 90
        1
176
     1
 90
        1
176
     1
 40
1.0
176
     1
 90
        8
176
     1
 62
     7
176
     1
 40
1.0
176
     1
 90
        1
176
     1
 90
        6
176
     1
 90
        2
176
     1
 62
     7
176
     1
 90
        5
176
     1
 90
        0
176
     1
 90
        0
176
     1
290
     0
176
     1
 90
        1
176
     1
 40
50.0
176
     1
 90
        0
176
     1
290
     0
176
     1
290
     1
176
     1
290
     1
176
     1
290
     0
176
     1
290
     0
176
     1
290
     0
176
     1
290
     0
176
     1
290
     0
176
     1
290
     0
176
     1
 90
       50
176
     1
 40
0.0
176
     1
 40
1.0
176
     1
 90
        0
176
     1
 62
    18
176
     1
 90
       50
176
     1
 90
        3
176
     1
 62
     5
420
      255
176
     1
290
     0
176
     1
 90
       50
176
     1
 90
       50
176
     1
 90
       50
176
     1
290
     0
176
     1
 90
       50
176
     1
 62
   256
176
     0
 40
1.0
176
     0
 90
        2
176
     1
  1
strokes_ogs.tif
176
     1
290
     0
176
     1
 40
1.0
176
     1
 40
1.0
176
     1
1001
ACAD
1000
AcDbSavedByObjectVersion
1070
     0
  0
VISUALSTYLE
  5
39
102
{ACAD_REACTORS
330
29
102
}
330
29
100
AcDbVisualStyle
  2
ColorChange
 70
    16
177
     3
291
     1
 70
    58
 90
        2
176
     1
 90
        2
176
     1
 90
        3
176
     1
 90
        0
176
     1
 40
0.6
176
     1
 40
30.0
176
     1
 62
     8
420
  8421504
176
     1
 90
        1
176
     1
 90
        4
176
     1
 62
     7
176
     1
 62
   257
176
     1
 90
        1
176
     1
 90
        1
176
     1
 40
1.0
176
     1
 90
        8
176
     1
 62
     8
420
  8421504
176
     1
 40
1.0
176
     1
 90
        1
176
     1
 90
        6
176
     1
 90
        2
176
     1
 62
     7
176
     1
 90
        5
176
     1
 90
        0
176
     1
 90
        0
176
     1
290
     0
176
     1
 90
        1
176
     1
 40
0.0
176
     1
 90
        0
176
     1
290
     0
176
     1
290
     1
176
     1
290
     1
176
     1
290
     0
176
     1
290
     0
176
     1
290
     0
176
     1
290
     0
176
     1
290
     0
176
     1
290
     0
176
     1
 90
       50
176
     1
 40
0.0
176
     1
 40
1.0
176
     1
 90
        0
176
     1
 62
    18
176
     1
 90
       50
176
     1
 90
        3
176
     1
 62
     5
420
      255
176
     1
290
     0
176
     1
 90
       50
176
     1
 90
       50
176
     1
 90
       50
176
     1
290
     0
176
     1
 90
       50
176
     1
 62
   256
176
     0
 40
1.0
176
     0
 90
        2
176
     1
  1
strokes_ogs.tif
176
     1
290
     0
176
     1
 40
1.0
176
     1
 40
1.0
176
     1
1001
ACAD
1000
AcDbSavedByObjectVersion
1070
     0
  0
VISUALSTYLE
  5
32
102
{ACAD_REACTORS
330
29
102
}
330
29
100
AcDbVisualStyle
  2
Conceptual
 70
     9
177
     3
291
     0
 70
    58
 90
        3
176
     1
 90
        2
176
     1
 90
        0
176
     1
 90
        0
176
     1
 40
0.6
176
     1
 40
30.0
176
     1
 62
     7
420
 16777215
176
     1
 90
        2
176
     1
 90
        2
176
     1
 62
     7
176
     1
 62
   257
176
     1
 90
        1
176
     1
 90
        1
176
     1
 40
179.0
176
     1
 90
        8
176
     1
 62
     7
176
     1
 40
1.0
176
     1
 90
        1
176
     1
 90
        6
176
     1
 90
        2
176
     1
 62
     7
176
     1
 90
        3
176
     1
 90
        0
176
     1
 90
        0
176
     1
290
     0
176
     1
 90
        1
176
     1
 40
0.0
176
     1
 90
        0
176
     1
290
     0
176
     1
290
     1
176
     1
290
     1
176
     1
290
     0
176
     1
290
     0
176
     1
290
     0
176
     1
290
     0
176
     1
290
     0
176
     1
290
     0
176
     1
 90
       50
176
     1
 40
0.0
176
     1
 40
1.0
176
     1
 90
        0
176
     1
 62
    18
176
     1
 90
       50
176
     1
 90
        3
176
     1
 62
     5
420
      255
176
     1
290
     0
176
     1
 90
       50
176
     1
 90
       50
176
     1
 90
       50
176
     1
290
     0
176
     1
 90
       50
176
     1
 62
   256
176
     0
 40
1.0
176
     0
 90
        2
176
     1
  1
strokes_ogs.tif
176
     1
290
     0
176
     1
 40
1.0
176
     1
 40
1.0
176
     1
1001
ACAD
1000
AcDbSavedByObjectVersion
1070
     0
  0
VISUALSTYLE
  5
34
102
{ACAD_REACTORS
330
29
102
}
330
29
100
AcDbVisualStyle
  2
Dim
 70
    11
177
     3
291
     1
 70
    58
 90
        2
176
     1
 90
        2
176
     1
 90
        0
176
     1
 90
        0
176
     1
 40
0.6
176
     1
 40
30.0
176
     1
 62
     7
420
 16777215
176
     1
 90
        1
176
     1
 90
        4
176
     1
 62
     7
176
     1
 62
   257
176
     1
 90
        1
176
     1
 90
        1
176
     1
 40
1.0
176
     1
 90
        8
176
     1
 62
     7
176
     1
 40
1.0
176
     1
 90
        1
176
     1
 90
        6
176
     1
 90
        2
176
     1
 62
     7
176
     1
 90
        5
176
     1
 90
        0
176
     1
 90
        0
176
     1
290
     0
176
     1
 90
        1
176
     1
 40
-50.0
176
     1
 90
        0
176
     1
290
     0
176
     1
290
     1
176
     1
290
     1
176
     1
290
     0
176
     1
290
     0
176
     1
290
     0
176
     1
290
     0
176
     1
290
     0
176
     1
290
     0
176
     1
 90
       50
176
     1
 40
0.0
176
     1
 40
1.0
176
     1
 90
        0
176
     1
 62
    18
176
     1
 90
       50
176
     1
 90
        3
176
     1
 62
     5
420
      255
176
     1
290
     0
176
     1
 90
       50
176
     1
 90
       50
176
     1
 90
       50
176
     1
290
     0
176
     1
 90
       50
176
     1
 62
   256
176
     0
 40
1.0
176
     0
 90
        2
176
     1
  1
strokes_ogs.tif
176
     1
290
     0
176
     1
 40
1.0
176
     1
 40
1.0
176
     1
1001
ACAD
1000
AcDbSavedByObjectVersion
1070
     0
  0
VISUALSTYLE
  5
41
102
{ACAD_REACTORS
330
29
102
}
330
29
100
AcDbVisualStyle
  2
EdgeColorOff
 70
    22
177
     3
291
     1
 70
    58
 90
        2
176
     0
 90
        2
176
     0
 90
        0
176
     0
 90
        0
176
     0
 40
0.6
176
     0
 40
30.0
176
     0
 62
     7
420
 16777215
176
     0
 90
        1
176
     0
 90
        4
176
     0
 62
     7
176
     0
 62
   257
176
     0
 90
        1
176
     0
 90
        1
176
     0
 40
1.0
176
     0
 90
        8
176
     2
 62
     7
176
     0
 40
1.0
176
     0
 90
        1
176
     0
 90
        6
176
     0
 90
        2
176
     0
 62
     7
176
     0
 90
        5
176
     0
 90
        0
176
     0
 90
        0
176
     0
290
     0
176
     0
 90
        1
176
     0
 40
0.0
176
     0
 90
        0
176
     0
290
     0
176
     0
290
     1
176
     0
290
     1
176
     0
290
     0
176
     0
290
     0
176
     0
290
     0
176
     0
290
     0
176
     0
290
     0
176
     0
290
     0
176
     0
 90
       50
176
     0
 40
0.0
176
     0
 40
1.0
176
     0
 90
        0
176
     0
 62
    18
176
     0
 90
       50
176
     0
 90
        3
176
     0
 62
     5
420
      255
176
     0
290
     0
176
     0
 90
       50
176
     0
 90
       50
176
     0
 90
       50
176
     0
290
     0
176
     0
 90
       50
176
     0
 62
   256
176
     0
 40
1.0
176
     0
 90
        2
176
     0
  1
strokes_ogs.tif
176
     0
290
     0
176
     0
 40
1.0
176
     0
 40
1.0
176
     0
1001
ACAD
1000
AcDbSavedByObjectVersion
1070
     0
  0
VISUALSTYLE
  5
38
102
{ACAD_REACTORS
330
29
102
}
330
29
100
AcDbVisualStyle
  2
Facepattern
 70
    15
177
     3
291
     1
 70
    58
 90
        2
176
     1
 90
        2
176
     1
 90
        0
176
     1
 90
        0
176
     1
 40
0.6
176
     1
 40
30.0
176
     1
 62
     7
420
 16777215
176
     1
 90
        1
176
     1
 90
        4
176
     1
 62
     7
176
     1
 62
   257
176
     1
 90
        1
176
     1
 90
        1
176
     1
 40
1.0
176
     1
 90
        8
176
     1
 62
     7
176
     1
 40
1.0
176
     1
 90
        1
176
     1
 90
        6
176
     1
 90
        2
176
     1
 62
     7
176
     1
 90
        5
176
     1
 90
        0
176
     1
 90
        0
176
     1
290
     0
176
     1
 90
        1
176
     1
 40
0.0
176
     1
 90
        0
176
     1
290
     0
176
     1
290
     1
176
     1
290
     1
176
     1
290
     0
176
     1
290
     0
176
     1
290
     0
176
     1
290
     0
176
     1
290
     0
176
     1
290
     0
176
     1
 90
       50
176
     1
 40
0.0
176
     1
 40
1.0
176
     1
 90
        0
176
     1
 62
    18
176
     1
 90
       50
176
     1
 90
        3
176
     1
 62
     5
420
      255
176
     1
290
     0
176
     1
 90
       50
176
     1
 90
       50
176
     1
 90
       50
176
     1
290
     0
176
     1
 90
       50
176
     1
 62
   256
176
     0
 40
1.0
176
     0
 90
        2
176
     1
  1
strokes_ogs.tif
176
     1
290
     0
176
     1
 40
1.0
176
     1
 40
1.0
176
     1
1001
ACAD
1000
AcDbSavedByObjectVersion
1070
     0
  0
VISUALSTYLE
  5
2A
102
{ACAD_REACTORS
330
29
102
}
330
29
100
AcDbVisualStyle
  2
Flat
 70
     0
177
     3
291
     1
 70
    58
 90
        2
176
     1
 90
        1
176
     1
 90
        1
176
     1
 90
        2
176
     1
 40
0.6
176
     1
 40
30.0
176
     1
 62
     7
420
 16777215
176
     1
 90
        0
176
     1
 90
        0
176
     1
 62
     7
176
     1
 62
   257
176
     1
 90
        1
176
     1
 90
        1
176
     1
 40
1.0
176
     1
 90
        8
176
     1
 62
     7
176
     1
 40
1.0
176
     1
 90
        1
176
     1
 90
        6
176
     1
 90
        2
176
     1
 62
     7
176
     1
 90
        5
176
     1
 90
        0
176
     1
 90
        0
176
     1
290
     0
176
     1
 90
       13
176
     1
 40
0.0
176
     1
 90
        0
176
     1
290
     0
176
     1
290
     1
176
     1
290
     1
176
     1
290
     0
176
     1
290
     0
176
     1
290
     0
176
     1
290
     0
176
     1
290
     0
176
     1
290
     0
176
     1
 90
       50
176
     1
 40
0.0
176
     1
 40
1.0
176
     1
 90
        0
176
     1
 62
    18
176
     1
 90
       50
176
     1
 90
        3
176
     1
 62
     5
420
      255
176
     1
290
     0
176
     1
 90
       50
176
     1
 90
       50
176
     1
 90
       50
176
     1
290
     0
176
     1
 90
       50
176
     1
 62
   256
176
     0
 40
1.0
176
     0
 90
        2
176
     1
  1
strokes_ogs.tif
176
     1
290
     0
176
     1
 40
1.0
176
     1
 40
1.0
176
     1
1001
ACAD
1000
AcDbSavedByObjectVersion
1070
     0
  0
VISUALSTYLE
  5
2B
102
{ACAD_REACTORS
330
29
102
}
330
29
100
AcDbVisualStyle
  2
FlatWithEdges
 70
     1
177
     3
291
     1
 70
    58
 90
        2
176
     1
 90
        1
176
     1
 90
        1
176
     1
 90
        2
176
     1
 40
0.6
176
     1
 40
30.0
176
     1
 62
     7
420
 16777215
176
     1
 90
        1
176
     1
 90
        0
176
     1
 62
     7
176
     1
 62
   257
176
     1
 90
        1
176
     1
 90
        1
176
     1
 40
1.0
176
     1
 90
        0
176
     1
 62
   257
176
     1
 40
1.0
176
     1
 90
        1
176
     1
 90
        6
176
     1
 90
        2
176
     1
 62
     7
176
     1
 90
        5
176
     1
 90
        0
176
     1
 90
        0
176
     1
290
     0
176
     1
 90
       13
176
     1
 40
0.0
176
     1
 90
        0
176
     1
290
     0
176
     1
290
     1
176
     1
290
     1
176
     1
290
     0
176
     1
290
     0
176
     1
290
     0
176
     1
290
     0
176
     1
290
     0
176
     1
290
     0
176
     1
 90
       50
176
     1
 40
0.0
176
     1
 40
1.0
176
     1
 90
        0
176
     1
 62
    18
176
     1
 90
       50
176
     1
 90
        3
176
     1
 62
     5
420
      255
176
     1
290
     0
176
     1
 90
       50
176
     1
 90
       50
176
     1
 90
       50
176
     1
290
     0
176
     1
 90
       50
176
     1
 62
   256
176
     0
 40
1.0
176
     0
 90
        2
176
     1
  1
strokes_ogs.tif
176
     1
290
     0
176
     1
 40
1.0
176
     1
 40
1.0
176
     1
1001
ACAD
1000
AcDbSavedByObjectVersion
1070
     0
  0
VISUALSTYLE
  5
2C
102
{ACAD_REACTORS
330
29
102
}
330
29
100
AcDbVisualStyle
  2
Gouraud
 70
     2
177
     3
291
     1
 70
    58
 90
        2
176
     1
 90
        2
176
     1
 90
        1
176
     1
 90
        2
176
     1
 40
0.6
176
     1
 40
30.0
176
     1
 62
     7
420
 16777215
176
     1
 90
        0
176
     1
 90
        0
176
     1
 62
     7
176
     1
 62
   257
176
     1
 90
        1
176
     1
 90
        1
176
     1
 40
1.0
176
     1
 90
        0
176
     1
 62
     7
176
     1
 40
1.0
176
     1
 90
        1
176
     1
 90
        6
176
     1
 90
        2
176
     1
 62
     7
176
     1
 90
        5
176
     1
 90
        0
176
     1
 90
        0
176
     1
290
     0
176
     1
 90
       13
176
     1
 40
0.0
176
     1
 90
        0
176
     1
290
     0
176
     1
290
     1
176
     1
290
     1
176
     1
290
     0
176
     1
290
     0
176
     1
290
     0
176
     1
290
     0
176
     1
290
     0
176
     1
290
     0
176
     1
 90
       50
176
     1
 40
0.0
176
     1
 40
1.0
176
     1
 90
        0
176
     1
 62
    18
176
     1
 90
       50
176
     1
 90
        3
176
     1
 62
     5
420
      255
176
     1
290
     0
176
     1
 90
       50
176
     1
 90
       50
176
     1
 90
       50
176
     1
290
     0
176
     1
 90
       50
176
     1
 62
   256
176
     0
 40
1.0
176
     0
 90
        2
176
     1
  1
strokes_ogs.tif
176
     1
290
     0
176
     1
 40
1.0
176
     1
 40
1.0
176
     1
1001
ACAD
1000
AcDbSavedByObjectVersion
1070
     0
  0
VISUALSTYLE
  5
2D
102
{ACAD_REACTORS
330
29
102
}
330
29
100
AcDbVisualStyle
  2
GouraudWithEdges
 70
     3
177
     3
291
     1
 70
    58
 90
        2
176
     1
 90
        2
176
     1
 90
        1
176
     1
 90
        2
176
     1
 40
0.6
176
     1
 40
30.0
176
     1
 62
     7
420
 16777215
176
     1
 90
        1
176
     1
 90
        0
176
     1
 62
     7
176
     1
 62
   257
176
     1
 90
        1
176
     1
 90
        1
176
     1
 40
1.0
176
     1
 90
        0
176
     1
 62
   257
176
     1
 40
1.0
176
     1
 90
        1
176
     1
 90
        6
176
     1
 90
        2
176
     1
 62
     7
176
     1
 90
        5
176
     1
 90
        0
176
     1
 90
        0
176
     1
290
     0
176
     1
 90
       13
176
     1
 40
0.0
176
     1
 90
        0
176
     1
290
     0
176
     1
290
     1
176
     1
290
     1
176
     1
290
     0
176
     1
290
     0
176
     1
290
     0
176
     1
290
     0
176
     1
290
     0
176
     1
290
     0
176
     1
 90
       50
176
     1
 40
0.0
176
     1
 40
1.0
176
     1
 90
        0
176
     1
 62
    18
176
     1
 90
       50
176
     1
 90
        3
176
     1
 62
     5
420
      255
176
     1
290
     0
176
     1
 90
       50
176
     1
 90
       50
176
     1
 90
       50
176
     1
290
     0
176
     1
 90
       50
176
     1
 62
   256
176
     0
 40
1.0
176
     0
 90
        2
176
     1
  1
strokes_ogs.tif
176
     1
290
     0
176
     1
 40
1.0
176
     1
 40
1.0
176
     1
1001
ACAD
1000
AcDbSavedByObjectVersion
1070
     0
  0
VISUALSTYLE
  5
31
102
{ACAD_REACTORS
330
29
102
}
330
29
100
AcDbVisualStyle
  2
Hidden
 70
     6
177
     3
291
     0
 70
    58
 90
        1
176
     1
 90
        2
176
     1
 90
        2
176
     1
 90
        0
176
     1
 40
0.6
176
     1
 40
30.0
176
     1
 62
     7
420
 16777215
176
     1
 90
        2
176
     1
 90
        2
176
     1
 62
     7
176
     1
 62
   257
176
     1
 90
        2
176
     1
 90
        1
176
     1
 40
40.0
176
     1
 90
        0
176
     1
 62
   257
176
     1
 40
1.0
176
     1
 90
        1
176
     1
 90
        6
176
     1
 90
        2
176
     1
 62
     7
176
     1
 90
        3
176
     1
 90
        0
176
     1
 90
        0
176
     1
290
     0
176
     1
 90
        1
176
     1
 40
0.0
176
     1
 90
        0
176
     1
290
     0
176
     1
290
     1
176
     1
290
     1
176
     1
290
     0
176
     1
290
     0
176
     1
290
     0
176
     1
290
     0
176
     1
290
     0
176
     1
290
     0
176
     1
 90
       50
176
     1
 40
0.0
176
     1
 40
1.0
176
     1
 90
        0
176
     1
 62
    18
176
     1
 90
       50
176
     1
 90
        3
176
     1
 62
     5
420
      255
176
     1
290
     0
176
     1
 90
       50
176
     1
 90
       50
176
     1
 90
       50
176
     1
290
     0
176
     1
 90
       50
176
     1
 62
   256
176
     0
 40
1.0
176
     0
 90
        2
176
     1
  1
strokes_ogs.tif
176
     1
290
     0
176
     1
 40
1.0
176
     1
 40
1.0
176
     1
1001
ACAD
1000
AcDbSavedByObjectVersion
1070
     0
  0
VISUALSTYLE
  5
3F
102
{ACAD_REACTORS
330
29
102
}
330
29
100
AcDbVisualStyle
  2
JitterOff
 70
    20
177
     3
291
     1
 70
    58
 90
        2
176
     0
 90
        2
176
     0
 90
        0
176
     0
 90
        0
176
     0
 40
0.6
176
     0
 40
30.0
176
     0
 62
     7
420
 16777215
176
     0
 90
        1
176
     0
 90
        4
176
     0
 62
     7
176
     0
 62
   257
176
     0
 90
        1
176
     0
 90
        1
176
     0
 40
1.0
176
     0
 90
       10
176
     2
 62
     7
176
     0
 40
1.0
176
     0
 90
        1
176
     0
 90
        6
176
     0
 90
        2
176
     0
 62
     7
176
     0
 90
        5
176
     0
 90
        0
176
     0
 90
        0
176
     0
290
     0
176
     0
 90
        1
176
     0
 40
0.0
176
     0
 90
        0
176
     0
290
     0
176
     0
290
     1
176
     0
290
     1
176
     0
290
     0
176
     0
290
     0
176
     0
290
     0
176
     0
290
     0
176
     0
290
     0
176
     0
290
     0
176
     0
 90
       50
176
     0
 40
0.0
176
     0
 40
1.0
176
     0
 90
        0
176
     0
 62
    18
176
     0
 90
       50
176
     0
 90
        3
176
     0
 62
     5
420
      255
176
     0
290
     0
176
     0
 90
       50
176
     0
 90
       50
176
     0
 90
       50
176
     0
290
     0
176
     0
 90
       50
176
     0
 62
   256
176
     0
 40
1.0
176
     0
 90
        2
176
     0
  1
strokes_ogs.tif
176
     0
290
     0
176
     0
 40
1.0
176
     0
 40
1.0
176
     0
1001
ACAD
1000
AcDbSavedByObjectVersion
1070
     0
  0
VISUALSTYLE
  5
37
102
{ACAD_REACTORS
330
29
102
}
330
29
100
AcDbVisualStyle
  2
Linepattern
 70
    14
177
     3
291
     1
 70
    58
 90
        2
176
     1
 90
        2
176
     1
 90
        0
176
     1
 90
        0
176
     1
 40
0.6
176
     1
 40
30.0
176
     1
 62
     7
420
 16777215
176
     1
 90
        1
176
     1
 90
        4
176
     1
 62
     7
176
     1
 62
   257
176
     1
 90
        7
176
     1
 90
        7
176
     1
 40
1.0
176
     1
 90
        8
176
     1
 62
     7
176
     1
 40
1.0
176
     1
 90
        1
176
     1
 90
        6
176
     1
 90
        2
176
     1
 62
     7
176
     1
 90
        5
176
     1
 90
        0
176
     1
 90
        0
176
     1
290
     0
176
     1
 90
        1
176
     1
 40
0.0
176
     1
 90
        0
176
     1
290
     0
176
     1
290
     1
176
     1
290
     1
176
     1
290
     0
176
     1
290
     0
176
     1
290
     0
176
     1
290
     0
176
     1
290
     0
176
     1
290
     0
176
     1
 90
       50
176
     1
 40
0.0
176
     1
 40
1.0
176
     1
 90
        0
176
     1
 62
    18
176
     1
 90
       50
176
     1
 90
        3
176
     1
 62
     5
420
      255
176
     1
290
     0
176
     1
 90
       50
176
     1
 90
       50
176
     1
 90
       50
176
     1
290
     0
176
     1
 90
       50
176
     1
 62
   256
176
     0
 40
1.0
176
     0
 90
        2
176
     1
  1
strokes_ogs.tif
176
     1
290
     0
176
     1
 40
1.0
176
     1
 40
1.0
176
     1
1001
ACAD
1000
AcDbSavedByObjectVersion
1070
     0
  0
VISUALSTYLE
  5
40
102
{ACAD_REACTORS
330
29
102
}
330
29
100
AcDbVisualStyle
  2
OverhangOff
 70
    21
177
     3
291
     1
 70
    58
 90
        2
176
     0
 90
        2
176
     0
 90
        0
176
     0
 90
        0
176
     0
 40
0.6
176
     0
 40
30.0
176
     0
 62
     7
420
 16777215
176
     0
 90
        1
176
     0
 90
        4
176
     0
 62
     7
176
     0
 62
   257
176
     0
 90
        1
176
     0
 90
        1
176
     0
 40
1.0
176
     0
 90
        9
176
     2
 62
     7
176
     0
 40
1.0
176
     0
 90
        1
176
     0
 90
        6
176
     0
 90
        2
176
     0
 62
     7
176
     0
 90
        5
176
     0
 90
        0
176
     0
 90
        0
176
     0
290
     0
176
     0
 90
        1
176
     0
 40
0.0
176
     0
 90
        0
176
     0
290
     0
176
     0
290
     1
176
     0
290
     1
176
     0
290
     0
176
     0
290
     0
176
     0
290
     0
176
     0
290
     0
176
     0
290
     0
176
     0
290
     0
176
     0
 90
       50
176
     0
 40
0.0
176
     0
 40
1.0
176
     0
 90
        0
176
     0
 62
    18
176
     0
 90
       50
176
     0
 90
        3
176
     0
 62
     5
420
      255
176
     0
290
     0
176
     0
 90
       50
176
     0
 90
       50
176
     0
 90
       50
176
     0
290
     0
176
     0
 90
       50
176
     0
 62
   256
176
     0
 40
1.0
176
     0
 90
        2
176
     0
  1
strokes_ogs.tif
176
     0
290
     0
176
     0
 40
1.0
176
     0
 40
1.0
176
     0
1001
ACAD
1000
AcDbSavedByObjectVersion
1070
     0
  0
VISUALSTYLE
  5
33
102
{ACAD_REACTORS
330
29
102
}
330
29
100
AcDbVisualStyle
  2
Realistic
 70
     8
177
     3
291
     0
 70
    58
 90
        2
176
     1
 90
        3
176
     1
 90
        0
176
     1
 90
        2
176
     1
 40
0.6
176
     1
 40
30.0
176
     1
 62
     7
420
 16777215
176
     1
 90
        0
176
     1
 90
        0
176
     1
 62
     7
176
     1
 62
   257
176
     1
 90
        1
176
     1
 90
        1
176
     1
 40
1.0
176
     1
 90
        8
176
     1
 62
   257
176
     1
 40
1.0
176
     1
 90
        1
176
     1
 90
        6
176
     1
 90
        2
176
     1
 62
     7
176
     1
 90
        3
176
     1
 90
        0
176
     1
 90
        0
176
     1
290
     0
176
     1
 90
       13
176
     1
 40
0.0
176
     1
 90
        0
176
     1
290
     0
176
     1
290
     1
176
     1
290
     1
176
     1
290
     0
176
     1
290
     0
176
     1
290
     0
176
     1
290
     0
176
     1
290
     0
176
     1
290
     0
176
     1
 90
       50
176
     1
 40
0.0
176
     1
 40
1.0
176
     1
 90
        0
176
     1
 62
    18
176
     1
 90
       50
176
     1
 90
        3
176
     1
 62
     5
420
      255
176
     1
290
     0
176
     1
 90
       50
176
     1
 90
       50
176
     1
 90
       50
176
     1
290
     0
176
     1
 90
       50
176
     1
 62
   256
176
     0
 40
1.0
176
     0
 90
        2
176
     1
  1
strokes_ogs.tif
176
     1
290
     0
176
     1
 40
1.0
176
     1
 40
1.0
176
     1
1001
ACAD
1000
AcDbSavedByObjectVersion
1070
     0
  0
VISUALSTYLE
  5
3E
102
{ACAD_REACTORS
330
29
102
}
330
29
100
AcDbVisualStyle
  2
Shaded
 70
    27
177
     3
291
     0
 70
    58
 90
        2
176
     1
 90
        2
176
     1
 90
        1
176
     1
 90
        2
176
     1
 40
0.6
176
     1
 40
30.0
176
     1
 62
     7
420
 16777215
176
     1
 90
        0
176
     1
 90
        4
176
     1
 62
     7
176
     1
 62
   257
176
     1
 90
        1
176
     1
 90
        1
176
     1
 40
1.0
176
     1
 90
        8
176
     1
 62
   257
176
     1
 40
1.0
176
     1
 90
        1
176
     1
 90
        6
176
     1
 90
        2
176
     1
 62
     8
420
  7895160
176
     1
 90
        3
176
     1
 90
        0
176
     1
 90
        0
176
     1
290
     0
176
     1
 90
        5
176
     1
 40
0.0
176
     1
 90
        0
176
     1
290
     0
176
     1
290
     1
176
     1
290
     1
176
     1
290
     0
176
     1
290
     0
176
     1
290
     0
176
     1
290
     0
176
     1
290
     0
176
     1
290
     0
176
     1
 90
       50
176
     1
 40
0.0
176
     1
 40
1.0
176
     1
 90
        0
176
     1
 62
    18
176
     1
 90
       50
176
     1
 90
        3
176
     1
 62
     5
420
      255
176
     1
290
     0
176
     1
 90
       50
176
     1
 90
       50
176
     1
 90
       50
176
     1
290
     0
176
     1
 90
       50
176
     1
 62
   256
176
     0
 40
1.0
176
     0
 90
        2
176
     1
  1
strokes_ogs.tif
176
     1
290
     0
176
     1
 40
1.0
176
     1
 40
1.0
176
     1
1001
ACAD
1000
AcDbSavedByObjectVersion
1070
     0
  0
VISUALSTYLE
  5
3D
102
{ACAD_REACTORS
330
29
102
}
330
29
100
AcDbVisualStyle
  2
Shaded with edges
 70
    26
177
     3
291
     0
 70
    58
 90
        2
176
     1
 90
        2
176
     1
 90
        1
176
     1
 90
        2
176
     1
 40
0.6
176
     1
 40
30.0
176
     1
 62
     7
420
 16777215
176
     1
 90
        1
176
     1
 90
        2
176
     1
 62
     7
176
     1
 62
   257
176
     1
 90
        2
176
     1
 90
        1
176
     1
 40
1.0
176
     1
 90
        8
176
     1
 62
   257
176
     1
 40
1.0
176
     1
 90
        1
176
     1
 90
        6
176
     1
 90
        2
176
     1
 62
     7
176
     1
 90
        3
176
     1
 90
        0
176
     1
 90
        0
176
     1
290
     0
176
     1
 90
        5
176
     1
 40
0.0
176
     1
 90
        0
176
     1
290
     0
176
     1
290
     1
176
     1
290
     1
176
     1
290
     0
176
     1
290
     0
176
     1
290
     0
176
     1
290
     0
176
     1
290
     0
176
     1
290
     0
176
     1
 90
       50
176
     1
 40
0.0
176
     1
 40
1.0
176
     1
 90
        0
176
     1
 62
    18
176
     1
 90
       50
176
     1
 90
        3
176
     1
 62
     5
420
      255
176
     1
290
     0
176
     1
 90
       50
176
     1
 90
       50
176
     1
 90
       50
176
     1
290
     0
176
     1
 90
       50
176
     1
 62
   256
176
     0
 40
1.0
176
     0
 90
        2
176
     1
  1
strokes_ogs.tif
176
     1
290
     0
176
     1
 40
1.0
176
     1
 40
1.0
176
     1
1001
ACAD
1000
AcDbSavedByObjectVersion
1070
     0
  0
VISUALSTYLE
  5
3A
102
{ACAD_REACTORS
330
29
102
}
330
29
100
AcDbVisualStyle
  2
Shades of Gray
 70
    23
177
     3
291
     0
 70
    58
 90
        2
176
     1
 90
        2
176
     1
 90
        3
176
     1
 90
        0
176
     1
 40
0.6
176
     1
 40
30.0
176
     1
 62
     7
420
 16777215
176
     1
 90
        2
176
     1
 90
        2
176
     1
 62
     7
176
     1
 62
     7
176
     1
 90
        1
176
     1
 90
        1
176
     1
 40
40.0
176
     1
 90
        8
176
     1
 62
     7
176
     1
 40
1.0
176
     1
 90
        1
176
     1
 90
        6
176
     1
 90
        2
176
     1
 62
     7
176
     1
 90
        3
176
     1
 90
        0
176
     1
 90
        0
176
     1
290
     0
176
     1
 90
        1
176
     1
 40
0.0
176
     1
 90
        0
176
     1
290
     0
176
     1
290
     1
176
     1
290
     1
176
     1
290
     0
176
     1
290
     0
176
     1
290
     0
176
     1
290
     0
176
     1
290
     0
176
     1
290
     0
176
     1
 90
       50
176
     1
 40
0.0
176
     1
 40
1.0
176
     1
 90
        0
176
     1
 62
    18
176
     1
 90
       50
176
     1
 90
        3
176
     1
 62
     5
420
      255
176
     1
290
     0
176
     1
 90
       50
176
     1
 90
       50
176
     1
 90
       50
176
     1
290
     0
176
     1
 90
       50
176
     1
 62
   256
176
     0
 40
1.0
176
     0
 90
        2
176
     1
  1
strokes_ogs.tif
176
     1
290
     0
176
     1
 40
1.0
176
     1
 40
1.0
176
     1
1001
ACAD
1000
AcDbSavedByObjectVersion
1070
     0
  0
VISUALSTYLE
  5
3B
102
{ACAD_REACTORS
330
29
102
}
330
29
100
AcDbVisualStyle
  2
Sketchy
 70
    24
177
     3
291
     0
 70
    58
 90
        1
176
     1
 90
        2
176
     1
 90
        2
176
     1
 90
        0
176
     1
 40
0.6
176
     1
 40
30.0
176
     1
 62
     7
420
 16777215
176
     1
 90
        2
176
     1
 90
        2
176
     1
 62
     7
176
     1
 62
     7
176
     1
 90
        1
176
     1
 90
        1
176
     1
 40
40.0
176
     1
 90
       11
176
     1
 62
     7
176
     1
 40
1.0
176
     1
 90
        1
176
     1
 90
        6
176
     1
 90
        2
176
     1
 62
     7
176
     1
 90
        6
176
     1
 90
        0
176
     1
 90
        0
176
     1
290
     0
176
     1
 90
        1
176
     1
 40
0.0
176
     1
 90
        0
176
     1
290
     0
176
     1
290
     1
176
     1
290
     1
176
     1
290
     0
176
     1
290
     0
176
     1
290
     0
176
     1
290
     0
176
     1
290
     0
176
     1
290
     0
176
     1
 90
       50
176
     1
 40
0.0
176
     1
 40
1.0
176
     1
 90
        0
176
     1
 62
    18
176
     1
 90
       50
176
     1
 90
        3
176
     1
 62
     5
420
      255
176
     1
290
     0
176
     1
 90
       50
176
     1
 90
       50
176
     1
 90
       50
176
     1
290
     0
176
     1
 90
       50
176
     1
 62
   256
176
     0
 40
1.0
176
     0
 90
        2
176
     1
  1
strokes_ogs.tif
176
     1
290
     0
176
     1
 40
1.0
176
     1
 40
1.0
176
     1
1001
ACAD
1000
AcDbSavedByObjectVersion
1070
     0
  0
VISUALSTYLE
  5
36
102
{ACAD_REACTORS
330
29
102
}
330
29
100
AcDbVisualStyle
  2
Thicken
 70
    13
177
     3
291
     1
 70
    58
 90
        2
176
     1
 90
        2
176
     1
 90
        0
176
     1
 90
        0
176
     1
 40
0.6
176
     1
 40
30.0
176
     1
 62
     7
420
 16777215
176
     1
 90
        1
176
     1
 90
        4
176
     1
 62
     7
176
     1
 62
   257
176
     1
 90
        1
176
     1
 90
        1
176
     1
 40
1.0
176
     1
 90
       12
176
     1
 62
     7
176
     1
 40
1.0
176
     1
 90
        1
176
     1
 90
        6
176
     1
 90
        2
176
     1
 62
     7
176
     1
 90
        5
176
     1
 90
        0
176
     1
 90
        0
176
     1
290
     0
176
     1
 90
        1
176
     1
 40
0.0
176
     1
 90
        0
176
     1
290
     0
176
     1
290
     1
176
     1
290
     1
176
     1
290
     0
176
     1
290
     0
176
     1
290
     0
176
     1
290
     0
176
     1
290
     0
176
     1
290
     0
176
     1
 90
       50
176
     1
 40
0.0
176
     1
 40
1.0
176
     1
 90
        0
176
     1
 62
    18
176
     1
 90
       50
176
     1
 90
        3
176
     1
 62
     5
420
      255
176
     1
290
     0
176
     1
 90
       50
176
     1
 90
       50
176
     1
 90
       50
176
     1
290
     0
176
     1
 90
       50
176
     1
 62
   256
176
     0
 40
1.0
176
     0
 90
        2
176
     1
  1
strokes_ogs.tif
176
     1
290
     0
176
     1
 40
1.0
176
     1
 40
1.0
176
     1
1001
ACAD
1000
AcDbSavedByObjectVersion
1070
     0
  0
VISUALSTYLE
  5
30
102
{ACAD_REACTORS
330
29
102
}
330
29
100
AcDbVisualStyle
  2
Wireframe
 70
     5
177
     3
291
     0
 70
    58
 90
        0
176
     1
 90
        2
176
     1
 90
        0
176
     1
 90
        0
176
     1
 40
0.6
176
     1
 40
30.0
176
     1
 62
     7
420
 16777215
176
     1
 90
        1
176
     1
 90
        4
176
     1
 62
     7
176
     1
 62
   257
176
     1
 90
        1
176
     1
 90
        1
176
     1
 40
1.0
176
     1
 90
        0
176
     1
 62
   257
176
     1
 40
1.0
176
     1
 90
        1
176
     1
 90
        6
176
     1
 90
        2
176
     1
 62
     7
176
     1
 90
        3
176
     1
 90
        0
176
     1
 90
        0
176
     1
290
     0
176
     1
 90
        1
176
     1
 40
0.0
176
     1
 90
        0
176
     1
290
     0
176
     1
290
     1
176
     1
290
     1
176
     1
290
     0
176
     1
290
     0
176
     1
290
     0
176
     1
290
     0
176
     1
290
     0
176
     1
290
     0
176
     1
 90
       50
176
     1
 40
0.0
176
     1
 40
1.0
176
     1
 90
        0
176
     1
 62
    18
176
     1
 90
       50
176
     1
 90
        3
176
     1
 62
     5
420
      255
176
     1
290
     0
176
     1
 90
       50
176
     1
 90
       50
176
     1
 90
       50
176
     1
290
     0
176
     1
 90
       50
176
     1
 62
   256
176
     0
 40
1.0
176
     0
 90
        2
176
     1
  1
strokes_ogs.tif
176
     1
290
     0
176
     1
 40
1.0
176
     1
 40
1.0
176
     1
1001
ACAD
1000
AcDbSavedByObjectVersion
1070
     0
  0
VISUALSTYLE
  5
3C
102
{ACAD_REACTORS
330
29
102
}
330
29
100
AcDbVisualStyle
  2
X-Ray
 70
    25
177
     3
291
     0
 70
    58
 90
        2
176
     1
 90
        2
176
     1
 90
        1
176
     1
 90
        1
176
     1
 40
0.5
176
     1
 40
30.0
176
     1
 62
     7
420
 16777215
176
     1
 90
        1
176
     1
 90
        0
176
     1
 62
     7
176
     1
 62
   257
176
     1
 90
        1
176
     1
 90
        1
176
     1
 40
1.0
176
     1
 90
        8
176
     1
 62
     7
176
     1
 40
1.0
176
     1
 90
        1
176
     1
 90
        6
176
     1
 90
        2
176
     1
 62
     7
176
     1
 90
        3
176
     1
 90
        0
176
     1
 90
        0
176
     1
290
     0
176
     1
 90
       13
176
     1
 40
0.0
176
     1
 90
        0
176
     1
290
     0
176
     1
290
     1
176
     1
290
     1
176
     1
290
     0
176
     1
290
     0
176
     1
290
     0
176
     1
290
     0
176
     1
290
     0
176
     1
290
     0
176
     1
 90
       50
176
     1
 40
0.0
176
     1
 40
1.0
176
     1
 90
        0
176
     1
 62
    18
176
     1
 90
       50
176
     1
 90
        3
176
     1
 62
     5
420
      255
176
     1
290
     0
176
     1
 90
       50
176
     1
 90
       50
176
     1
 90
       50
176
     1
290
     0
176
     1
 90
       50
176
     1
 62
   256
176
     0
 40
1.0
176
     0
 90
        2
176
     1
  1
strokes_ogs.tif
176
     1
290
     0
176
     1
 40
1.0
176
     1
 40
1.0
176
     1
1001
ACAD
1000
AcDbSavedByObjectVersion
1070
     0
  0
DICTIONARYVAR
  5
BB5
102
{ACAD_REACTORS
330
BB0
102
}
330
BB0
100
DictionaryVariables
280
     0
  1
0
  0
DICTIONARYVAR
  5
BB6
102
{ACAD_REACTORS
330
BB0
102
}
330
BB0
100
DictionaryVariables
280
     0
  1
1:1
  0
DICTIONARYVAR
  5
BB2
102
{ACAD_REACTORS
330
BB0
102
}
330
BB0
100
DictionaryVariables
280
     0
  1
STANDARD
  0
DICTIONARYVAR
  5
BB1
102
{ACAD_REACTORS
330
BB0
102
}
330
BB0
100
DictionaryVariables
280
     0
  1
STANDARD
  0
DICTIONARYVAR
  5
BB3
102
{ACAD_REACTORS
330
BB0
102
}
330
BB0
100
DictionaryVariables
280
     0
  1
Imperial24
  0
DICTIONARYVAR
  5
BB4
102
{ACAD_REACTORS
330
BB0
102
}
330
BB0
100
DictionaryVariables
280
     0
  1
Imperial24
  0
DICTIONARY
  5
1A
330
19
100
AcDbDictionary
280
     1
281
     1
  3
BUMPTILE
360
1C
  3
DIFFUSETILE
360
1B
  3
OPACITYTILE
360
1F
  3
REFLECTIONTILE
360
1E
  3
REFRACTIONTILE
360
20
  3
SPECULARTILE
360
1D
  0
DICTIONARY
  5
12
330
11
100
AcDbDictionary
280
     1
281
     1
  3
BUMPTILE
360
14
  3
DIFFUSETILE
360
13
  3
OPACITYTILE
360
17
  3
REFLECTIONTILE
360
16
  3
REFRACTIONTILE
360
18
  3
SPECULARTILE
360
15
  0
DICTIONARY
  5
22
330
21
100
AcDbDictionary
280
     1
281
     1
  3
BUMPTILE
360
24
  3
DIFFUSETILE
360
23
  3
OPACITYTILE
360
27
  3
REFLECTIONTILE
360
26
  3
REFRACTIONTILE
360
28
  3
SPECULARTILE
360
25
  0
DICTIONARY
  5
BB7
330
65
100
AcDbDictionary
280
     1
281
     1
  3
ACAD_ROUNDTRIP_2008_TABLESTYLE_CELLSTYLEMAP
360
119F
  0
XRECORD
  5
1C
102
{ACAD_REACTORS
330
1A
102
}
330
1A
100
AcDbXrecord
280
     1
270
     1
271
     1
  0
XRECORD
  5
1B
102
{ACAD_REACTORS
330
1A
102
}
330
1A
100
AcDbXrecord
280
     1
270
     1
271
     1
  0
XRECORD
  5
1F
102
{ACAD_REACTORS
330
1A
102
}
330
1A
100
AcDbXrecord
280
     1
270
     1
271
     1
  0
XRECORD
  5
1E
102
{ACAD_REACTORS
330
1A
102
}
330
1A
100
AcDbXrecord
280
     1
270
     1
271
     1
  0
XRECORD
  5
20
102
{ACAD_REACTORS
330
1A
102
}
330
1A
100
AcDbXrecord
280
     1
270
     1
271
     1
  0
XRECORD
  5
1D
102
{ACAD_REACTORS
330
1A
102
}
330
1A
100
AcDbXrecord
280
     1
270
     1
271
     1
  0
XRECORD
  5
14
102
{ACAD_REACTORS
330
12
102
}
330
12
100
AcDbXrecord
280
     1
270
     1
271
     1
  0
XRECORD
  5
13
102
{ACAD_REACTORS
330
12
102
}
330
12
100
AcDbXrecord
280
     1
270
     1
271
     1
  0
XRECORD
  5
17
102
{ACAD_REACTORS
330
12
102
}
330
12
100
AcDbXrecord
280
     1
270
     1
271
     1
  0
XRECORD
  5
16
102
{ACAD_REACTORS
330
12
102
}
330
12
100
AcDbXrecord
280
     1
270
     1
271
     1
  0
XRECORD
  5
18
102
{ACAD_REACTORS
330
12
102
}
330
12
100
AcDbXrecord
280
     1
270
     1
271
     1
  0
XRECORD
  5
15
102
{ACAD_REACTORS
330
12
102
}
330
12
100
AcDbXrecord
280
     1
270
     1
271
     1
  0
XRECORD
  5
24
102
{ACAD_REACTORS
330
22
102
}
330
22
100
AcDbXrecord
280
     1
270
     1
271
     1
  0
XRECORD
  5
23
102
{ACAD_REACTORS
330
22
102
}
330
22
100
AcDbXrecord
280
     1
270
     1
271
     1
  0
XRECORD
  5
27
102
{ACAD_REACTORS
330
22
102
}
330
22
100
AcDbXrecord
280
     1
270
     1
271
     1
  0
XRECORD
  5
26
102
{ACAD_REACTORS
330
22
102
}
330
22
100
AcDbXrecord
280
     1
270
     1
271
     1
  0
XRECORD
  5
28
102
{ACAD_REACTORS
330
22
102
}
330
22
100
AcDbXrecord
280
     1
270
     1
271
     1
  0
XRECORD
  5
25
102
{ACAD_REACTORS
330
22
102
}
330
22
100
AcDbXrecord
280
     1
270
     1
271
     1
  0
CELLSTYLEMAP
  5
119F
102
{ACAD_REACTORS
330
BB7
102
}
330
BB7
100
AcDbCellStyleMap
 90
        3
300
CELLSTYLE
  1
TABLEFORMAT_BEGIN
 90
        5
170
     1
 91
        0
 92
    32768
 62
   257
 93
        1
300
CONTENTFORMAT
  1
CONTENTFORMAT_BEGIN
 90
        0
 91
        0
 92
      512
 93
        0
300

 40
0.0
140
1.0
 94
        5
 62
     0
340
55
144
0.25
309
CONTENTFORMAT_END
171
     1
301
MARGIN
  1
CELLMARGIN_BEGIN
 40
1.5
 40
1.5
 40
1.5
 40
1.5
 40
0.18
 40
0.18
309
CELLMARGIN_END
 94
        6
 95
        1
302
GRIDFORMAT
  1
GRIDFORMAT_BEGIN
 90
        0
 91
        1
 62
     0
 92
       -2
340
0
 93
        0
 40
0.045
309
GRIDFORMAT_END
 95
        2
302
GRIDFORMAT
  1
GRIDFORMAT_BEGIN
 90
        0
 91
        1
 62
     0
 92
       -2
340
0
 93
        0
 40
0.045
309
GRIDFORMAT_END
 95
        4
302
GRIDFORMAT
  1
GRIDFORMAT_BEGIN
 90
        0
 91
        1
 62
     0
 92
       -2
340
0
 93
        0
 40
0.045
309
GRIDFORMAT_END
 95
        8
302
GRIDFORMAT
  1
GRIDFORMAT_BEGIN
 90
        0
 91
        1
 62
     0
 92
       -2
340
0
 93
        0
 40
0.045
309
GRIDFORMAT_END
 95
       16
302
GRIDFORMAT
  1
GRIDFORMAT_BEGIN
 90
        0
 91
        1
 62
     0
 92
       -2
340
0
 93
        0
 40
0.045
309
GRIDFORMAT_END
 95
       32
302
GRIDFORMAT
  1
GRIDFORMAT_BEGIN
 90
        0
 91
        1
 62
     0
 92
       -2
340
0
 93
        0
 40
0.045
309
GRIDFORMAT_END
309
TABLEFORMAT_END
  1
CELLSTYLE_BEGIN
 90
        1
 91
        1
300
_TITLE
309
CELLSTYLE_END
300
CELLSTYLE
  1
TABLEFORMAT_BEGIN
 90
        5
170
     1
 91
        0
 92
        0
 62
   257
 93
        1
300
CONTENTFORMAT
  1
CONTENTFORMAT_BEGIN
 90
        0
 91
        0
 92
      512
 93
        0
300

 40
0.0
140
1.0
 94
        5
 62
     0
340
55
144
0.18
309
CONTENTFORMAT_END
171
     1
301
MARGIN
  1
CELLMARGIN_BEGIN
 40
1.5
 40
1.5
 40
1.5
 40
1.5
 40
0.18
 40
0.18
309
CELLMARGIN_END
 94
        6
 95
        1
302
GRIDFORMAT
  1
GRIDFORMAT_BEGIN
 90
        0
 91
        1
 62
     0
 92
       -2
340
0
 93
        0
 40
0.045
309
GRIDFORMAT_END
 95
        2
302
GRIDFORMAT
  1
GRIDFORMAT_BEGIN
 90
        0
 91
        1
 62
     0
 92
       -2
340
0
 93
        0
 40
0.045
309
GRIDFORMAT_END
 95
        4
302
GRIDFORMAT
  1
GRIDFORMAT_BEGIN
 90
        0
 91
        1
 62
     0
 92
       -2
340
0
 93
        0
 40
0.045
309
GRIDFORMAT_END
 95
        8
302
GRIDFORMAT
  1
GRIDFORMAT_BEGIN
 90
        0
 91
        1
 62
     0
 92
       -2
340
0
 93
        0
 40
0.045
309
GRIDFORMAT_END
 95
       16
302
GRIDFORMAT
  1
GRIDFORMAT_BEGIN
 90
        0
 91
        1
 62
     0
 92
       -2
340
0
 93
        0
 40
0.045
309
GRIDFORMAT_END
 95
       32
302
GRIDFORMAT
  1
GRIDFORMAT_BEGIN
 90
        0
 91
        1
 62
     0
 92
       -2
340
0
 93
        0
 40
0.045
309
GRIDFORMAT_END
309
TABLEFORMAT_END
  1
CELLSTYLE_BEGIN
 90
        2
 91
        1
300
_HEADER
309
CELLSTYLE_END
300
CELLSTYLE
  1
TABLEFORMAT_BEGIN
 90
        5
170
     1
 91
        0
 92
        0
 62
   257
 93
        1
300
CONTENTFORMAT
  1
CONTENTFORMAT_BEGIN
 90
        0
 91
        0
 92
      512
 93
        0
300

 40
0.0
140
1.0
 94
        2
 62
     0
340
55
144
0.18
309
CONTENTFORMAT_END
171
     1
301
MARGIN
  1
CELLMARGIN_BEGIN
 40
1.5
 40
1.5
 40
1.5
 40
1.5
 40
0.18
 40
0.18
309
CELLMARGIN_END
 94
        6
 95
        1
302
GRIDFORMAT
  1
GRIDFORMAT_BEGIN
 90
        0
 91
        1
 62
     0
 92
       -2
340
0
 93
        0
 40
0.045
309
GRIDFORMAT_END
 95
        2
302
GRIDFORMAT
  1
GRIDFORMAT_BEGIN
 90
        0
 91
        1
 62
     0
 92
       -2
340
0
 93
        0
 40
0.045
309
GRIDFORMAT_END
 95
        4
302
GRIDFORMAT
  1
GRIDFORMAT_BEGIN
 90
        0
 91
        1
 62
     0
 92
       -2
340
0
 93
        0
 40
0.045
309
GRIDFORMAT_END
 95
        8
302
GRIDFORMAT
  1
GRIDFORMAT_BEGIN
 90
        0
 91
        1
 62
     0
 92
       -2
340
0
 93
        0
 40
0.045
309
GRIDFORMAT_END
 95
       16
302
GRIDFORMAT
  1
GRIDFORMAT_BEGIN
 90
        0
 91
        1
 62
     0
 92
       -2
340
0
 93
        0
 40
0.045
309
GRIDFORMAT_END
 95
       32
302
GRIDFORMAT
  1
GRIDFORMAT_BEGIN
 90
        0
 91
        1
 62
     0
 92
       -2
340
0
 93
        0
 40
0.045
309
GRIDFORMAT_END
309
TABLEFORMAT_END
  1
CELLSTYLE_BEGIN
 90
        3
 91
        2
300
_DATA
309
CELLSTYLE_END
  0
ENDSEC
  0
EOF
