  0
SECTION
  2
HEADER
  9
$ACADVER
  1
AC1032
  9
$ACADMAINTVER
 90
      230
  9
$DWGCODEPAGE
  3
ANSI_932
  9
$LASTSAVEDBY
  1
hyuga-home
  9
$REQUIREDVERSIONS
160
                 0
  9
$INSBASE
 10
0.0
 20
0.0
 30
0.0
  9
$EXTMIN
 10
0.0
 20
0.0
 30
-0.0000000000000003
  9
$EXTMAX
 10
859.0825884999999
 20
373.9012128710778
 30
0.0000000000000237
  9
$LIMMIN
 10
0.0
 20
0.0
  9
$LIMMAX
 10
420.0
 20
297.0
  9
$ORTHOMODE
 70
     0
  9
$REGENMODE
 70
     1
  9
$FILLMODE
 70
     1
  9
$QTEXTMODE
 70
     0
  9
$MIRRTEXT
 70
     0
  9
$LTSCALE
 40
0.75
  9
$ATTMODE
 70
     1
  9
$TEXTSIZE
 40
3.5
  9
$TRACEWID
 40
1.0
  9
$TEXTSTYLE
  7
Standard
  9
$CLAYER
  8
0
  9
$CELTYPE
  6
ByLayer
  9
$CECOLOR
 62
   256
  9
$CELTSCALE
 40
1.0
  9
$DISPSILH
 70
     0
  9
$DIMSCALE
 40
1.0
  9
$DIMASZ
 40
3.5
  9
$DIMEXO
 40
2.1
  9
$DIMDLI
 40
10.5
  9
$DIMRND
 40
0.0
  9
$DIMDLE
 40
0.0
  9
$DIMEXE
 40
2.1
  9
$DIMTP
 40
0.1
  9
$DIMTM
 40
0.1
  9
$DIMTXT
 40
3.5
  9
$DIMCEN
 40
0.0
  9
$DIMTSZ
 40
0.0
  9
$DIMTOL
 70
     0
  9
$DIMLIM
 70
     0
  9
$DIMTIH
 70
     0
  9
$DIMTOH
 70
     0
  9
$DIMSE1
 70
     0
  9
$DIMSE2
 70
     0
  9
$DIMTAD
 70
     1
  9
$DIMZIN
 70
    12
  9
$DIMBLK
  1

  9
$DIMASO
 70
     1
  9
$DIMSHO
 70
     1
  9
$DIMPOST
  1

  9
$DIMAPOST
  1

  9
$DIMALT
 70
     0
  9
$DIMALTD
 70
     2
  9
$DIMALTF
 40
0.03937
  9
$DIMLFAC
 40
1.0
  9
$DIMTOFL
 70
     1
  9
$DIMTVP
 40
0.0
  9
$DIMTIX
 70
     0
  9
$DIMSOXD
 70
     0
  9
$DIMSAH
 70
     0
  9
$DIMBLK1
  1

  9
$DIMBLK2
  1

  9
$DIMSTYLE
  2
Dim-ISO-25
  9
$DIMCLRD
 70
     0
  9
$DIMCLRE
 70
     0
  9
$DIMCLRT
 70
     0
  9
$DIMTFAC
 40
0.714286
  9
$DIMGAP
 40
1.399999999999999
  9
$DIMJUST
 70
     0
  9
$DIMSD1
 70
     0
  9
$DIMSD2
 70
     0
  9
$DIMTOLJ
 70
     0
  9
$DIMTZIN
 70
    12
  9
$DIMALTZ
 70
    12
  9
$DIMALTTZ
 70
    12
  9
$DIMUPT
 70
     0
  9
$DIMDEC
 70
     2
  9
$DIMTDEC
 70
     2
  9
$DIMALTU
 70
     2
  9
$DIMALTTD
 70
     4
  9
$DIMTXSTY
  7
Standard
  9
$DIMAUNIT
 70
     0
  9
$DIMADEC
 70
     2
  9
$DIMALTRND
 40
0.0
  9
$DIMAZIN
 70
     3
  9
$DIMDSEP
 70
    46
  9
$DIMATFIT
 70
     3
  9
$DIMFRAC
 70
     0
  9
$DIMLDRBLK
  1

  9
$DIMLUNIT
 70
     2
  9
$DIMLWD
 70
    -2
  9
$DIMLWE
 70
    -2
  9
$DIMTMOVE
 70
     0
  9
$DIMFXL
 40
1.0
  9
$DIMFXLON
 70
     0
  9
$DIMJOGANG
 40
0.7853979999999999
  9
$DIMTFILL
 70
     0
  9
$DIMTFILLCLR
 70
     0
  9
$DIMARCSYM
 70
     0
  9
$DIMLTYPE
  6

  9
$DIMLTEX1
  6

  9
$DIMLTEX2
  6

  9
$DIMTXTDIRECTION
 70
     0
  9
$LUNITS
 70
     2
  9
$LUPREC
 70
     4
  9
$SKETCHINC
 40
1.0
  9
$FILLETRAD
 40
0.0
  9
$AUNITS
 70
     0
  9
$AUPREC
 70
     0
  9
$MENU
  1
.
  9
$ELEVATION
 40
0.0
  9
$PELEVATION
 40
0.0
  9
$THICKNESS
 40
0.0
  9
$LIMCHECK
 70
     0
  9
$CHAMFERA
 40
0.0
  9
$CHAMFERB
 40
0.0
  9
$CHAMFERC
 40
0.0
  9
$CHAMFERD
 40
0.0
  9
$SKPOLY
 70
     0
  9
$TDCREATE
 40
2459912.617199074
  9
$TDUCREATE
 40
2459912.242199074
  9
$TDUPDATE
 40
2459912.620300926
  9
$TDUUPDATE
 40
2459912.245300926
  9
$TDINDWG
 40
0.0030324074
  9
$TDUSRTIMER
 40
0.0030324074
  9
$USRTIMER
 70
     1
  9
$ANGBASE
 50
0.0
  9
$ANGDIR
 70
     0
  9
$PDMODE
 70
     0
  9
$PDSIZE
 40
0.0
  9
$PLINEWID
 40
0.0
  9
$SPLFRAME
 70
     0
  9
$SPLINETYPE
 70
     6
  9
$SPLINESEGS
 70
     8
  9
$HANDSEED
  5
97F
  9
$SURFTAB1
 70
     6
  9
$SURFTAB2
 70
     6
  9
$SURFTYPE
 70
     6
  9
$SURFU
 70
     6
  9
$SURFV
 70
     6
  9
$UCSBASE
  2

  9
$UCSNAME
  2

  9
$UCSORG
 10
0.0
 20
0.0
 30
0.0
  9
$UCSXDIR
 10
1.0
 20
0.0
 30
0.0
  9
$UCSYDIR
 10
0.0
 20
1.0
 30
0.0
  9
$UCSORTHOREF
  2

  9
$UCSORTHOVIEW
 70
     0
  9
$UCSORGTOP
 10
0.0
 20
0.0
 30
0.0
  9
$UCSORGBOTTOM
 10
0.0
 20
0.0
 30
0.0
  9
$UCSORGLEFT
 10
0.0
 20
0.0
 30
0.0
  9
$UCSORGRIGHT
 10
0.0
 20
0.0
 30
0.0
  9
$UCSORGFRONT
 10
0.0
 20
0.0
 30
0.0
  9
$UCSORGBACK
 10
0.0
 20
0.0
 30
0.0
  9
$PUCSBASE
  2

  9
$PUCSNAME
  2

  9
$PUCSORG
 10
0.0
 20
0.0
 30
0.0
  9
$PUCSXDIR
 10
1.0
 20
0.0
 30
0.0
  9
$PUCSYDIR
 10
0.0
 20
1.0
 30
0.0
  9
$PUCSORTHOREF
  2

  9
$PUCSORTHOVIEW
 70
     0
  9
$PUCSORGTOP
 10
0.0
 20
0.0
 30
0.0
  9
$PUCSORGBOTTOM
 10
0.0
 20
0.0
 30
0.0
  9
$PUCSORGLEFT
 10
0.0
 20
0.0
 30
0.0
  9
$PUCSORGRIGHT
 10
0.0
 20
0.0
 30
0.0
  9
$PUCSORGFRONT
 10
0.0
 20
0.0
 30
0.0
  9
$PUCSORGBACK
 10
0.0
 20
0.0
 30
0.0
  9
$USERI1
 70
     0
  9
$USERI2
 70
     0
  9
$USERI3
 70
     0
  9
$USERI4
 70
     0
  9
$USERI5
 70
     0
  9
$USERR1
 40
0.0
  9
$USERR2
 40
0.0
  9
$USERR3
 40
0.0
  9
$USERR4
 40
0.0
  9
$USERR5
 40
0.0
  9
$WORLDVIEW
 70
     1
  9
$SHADEDGE
 70
     3
  9
$SHADEDIF
 70
    70
  9
$TILEMODE
 70
     1
  9
$MAXACTVP
 70
    64
  9
$PINSBASE
 10
0.0
 20
0.0
 30
0.0
  9
$PLIMCHECK
 70
     0
  9
$PEXTMIN
 10
1.000000000000000E+20
 20
1.000000000000000E+20
 30
1.000000000000000E+20
  9
$PEXTMAX
 10
-1.000000000000000E+20
 20
-1.000000000000000E+20
 30
-1.000000000000000E+20
  9
$PLIMMIN
 10
0.0
 20
0.0
  9
$PLIMMAX
 10
12.0
 20
9.0
  9
$UNITMODE
 70
     0
  9
$VISRETAIN
 70
     1
  9
$PLINEGEN
 70
     0
  9
$PSLTSCALE
 70
     1
  9
$TREEDEPTH
 70
  3020
  9
$CMLSTYLE
  2
Standard
  9
$CMLJUST
 70
     0
  9
$CMLSCALE
 40
20.0
  9
$PROXYGRAPHICS
 70
     1
  9
$MEASUREMENT
 70
     1
  9
$CELWEIGHT
370
    -1
  9
$ENDCAPS
280
     0
  9
$JOINSTYLE
280
     0
  9
$LWDISPLAY
290
     0
  9
$INSUNITS
 70
     4
  9
$HYPERLINKBASE
  1

  9
$STYLESHEET
  1

  9
$XEDIT
290
     1
  9
$CEPSNTYPE
380
     0
  9
$PSTYLEMODE
290
     1
  9
$FINGERPRINTGUID
  2
{DBD5E1DE-7D07-064B-A387-8E6FD4BF3FE9}
  9
$VERSIONGUID
  2
{F8D10C53-9A6D-534C-9D38-90DCBFB5717C}
  9
$EXTNAMES
290
     1
  9
$PSVPSCALE
 40
0.0
  9
$OLESTARTUP
290
     0
  9
$SORTENTS
280
   127
  9
$INDEXCTL
280
     0
  9
$HIDETEXT
280
     1
  9
$XCLIPFRAME
280
     0
  9
$HALOGAP
280
     0
  9
$OBSCOLOR
 70
   257
  9
$OBSLTYPE
280
     0
  9
$INTERSECTIONDISPLAY
280
     0
  9
$INTERSECTIONCOLOR
 70
   257
  9
$DIMASSOC
280
     2
  9
$PROJECTNAME
  1

  9
$CAMERADISPLAY
290
     0
  9
$LENSLENGTH
 40
50.0
  9
$CAMERAHEIGHT
 40
0.0
  9
$STEPSPERSEC
 40
2.0
  9
$STEPSIZE
 40
6.0
  9
$3DDWFPREC
 40
2.0
  9
$PSOLWIDTH
 40
5.0
  9
$PSOLHEIGHT
 40
80.0
  9
$LOFTANG1
 40
1.570795999999999
  9
$LOFTANG2
 40
1.570795999999999
  9
$LOFTMAG1
 40
0.0
  9
$LOFTMAG2
 40
0.0
  9
$LOFTPARAM
 70
     7
  9
$LOFTNORMALS
280
     1
  9
$LATITUDE
 40
37.795
  9
$LONGITUDE
 40
-122.394
  9
$NORTHDIRECTION
 40
0.0
  9
$TIMEZONE
 70
 -8000
  9
$LIGHTGLYPHDISPLAY
280
     1
  9
$TILEMODELIGHTSYNCH
280
     1
  9
$CMATERIAL
347
11
  9
$SOLIDHIST
280
     0
  9
$SHOWHIST
280
     1
  9
$DWFFRAME
280
     2
  9
$DGNFRAME
280
     0
  9
$REALWORLDSCALE
290
     1
  9
$INTERFERECOLOR
 62
     1
  9
$INTERFEREOBJVS
345
33
  9
$INTERFEREVPVS
346
30
  9
$CSHADOW
280
     0
  9
$SHADOWPLANELOCATION
 40
0.0
  0
ENDSEC
  0
SECTION
  2
CLASSES
  0
CLASS
  1
ACDBDICTIONARYWDFLT
  2
AcDbDictionaryWithDefault
  3
ObjectDBX Classes
 90
        0
 91
        1
280
     0
281
     0
  0
CLASS
  1
MATERIAL
  2
AcDbMaterial
  3
ObjectDBX Classes
 90
     1153
 91
        3
280
     0
281
     0
  0
CLASS
  1
VISUALSTYLE
  2
AcDbVisualStyle
  3
ObjectDBX Classes
 90
     4095
 91
       24
280
     0
281
     0
  0
CLASS
  1
SCALE
  2
AcDbScale
  3
ObjectDBX Classes
 90
     1153
 91
       19
280
     0
281
     0
  0
CLASS
  1
TABLESTYLE
  2
AcDbTableStyle
  3
ObjectDBX Classes
 90
     4095
 91
        1
280
     0
281
     0
  0
CLASS
  1
MLEADERSTYLE
  2
AcDbMLeaderStyle
  3
ACDB_MLEADERSTYLE_CLASS
 90
     4095
 91
        1
280
     0
281
     0
  0
CLASS
  1
ACDBSECTIONVIEWSTYLE
  2
AcDbSectionViewStyle
  3
ObjectDBX Classes
 90
     1025
 91
        2
280
     0
281
     0
  0
CLASS
  1
ACDBDETAILVIEWSTYLE
  2
AcDbDetailViewStyle
  3
ObjectDBX Classes
 90
     1025
 91
        2
280
     0
281
     0
  0
CLASS
  1
ACMESCOPE
  2
AcMeScope
  3
AcMeServices
 90
     1024
 91
        0
280
     0
281
     0
  0
CLASS
  1
ACMECOMMANDHISTORY
  2
AcMeCommandHistory
  3
AcMeServices
 90
     1024
 91
        0
280
     0
281
     0
  0
CLASS
  1
ACIMSYSVARMAN
  2
AcImSysVarManager
  3
AcMeServices
 90
     1024
 91
        0
280
     0
281
     0
  0
CLASS
  1
ACIMINTSYSVAR
  2
AcImIntSysVar
  3
AcMeServices
 90
     1024
 91
        0
280
     0
281
     0
  0
CLASS
  1
ACMESTATEMGR
  2
AcMeStateMgr
  3
AcMeServices
 90
     1024
 91
        0
280
     0
281
     0
  0
CLASS
  1
ACGREFMASTER
  2
AcGrefMaster
  3
AcAttribServices
 90
     1024
 91
        0
280
     0
281
     0
  0
CLASS
  1
SORTENTSTABLE
  2
AcDbSortentsTable
  3
ObjectDBX Classes
 90
        0
 91
        2
280
     0
281
     0
  0
CLASS
  1
FIELD
  2
AcDbField
  3
ObjectDBX Classes
 90
     1152
 91
        0
280
     0
281
     0
  0
CLASS
  1
FIELDLIST
  2
AcDbFieldList
  3
ObjectDBX Classes
 90
     1152
 91
        1
280
     0
281
     0
  0
CLASS
  1
DICTIONARYVAR
  2
AcDbDictionaryVar
  3
ObjectDBX Classes
 90
        0
 91
        8
280
     0
281
     0
  0
CLASS
  1
CELLSTYLEMAP
  2
AcDbCellStyleMap
  3
ObjectDBX Classes
 90
     1152
 91
        2
280
     0
281
     0
  0
CLASS
  1
DIMASSOC
  2
AcDbDimAssoc
  3
"AcDbDimAssoc|Product Desc:     AcDim ARX App For Dimension|Company:          Autodesk, Inc.|WEB Address:      www.autodesk.com"
 90
        0
 91
        1
280
     0
281
     0
  0
ENDSEC
  0
SECTION
  2
TABLES
  0
TABLE
  2
VPORT
  5
8
330
0
100
AcDbSymbolTable
 70
     1
1001
ACAD
1000
DbSaveVer
1071
      278
  0
VPORT
  5
57
330
8
100
AcDbSymbolTableRecord
100
AcDbViewportTableRecord
  2
*Active
 70
     0
 10
0.0
 20
0.0
 11
1.0
 21
1.0
 12
296.1986615653493
 22
242.3529889379996
 13
0.0
 23
0.0
 14
0.5
 24
0.5
 15
0.0
 25
0.0
 16
0.0
 26
0.0
 36
1.0
 17
0.0
 27
0.0
 37
0.0
 40
768.8647598495351
 41
1.950819672131147
 42
50.0
 43
0.0
 44
0.0
 50
0.0
 51
0.0
 71
     0
 72
 20000
 73
     1
 74
     0
 75
     0
 76
     0
 77
     0
 78
     0
281
     0
 65
     1
110
0.0
120
0.0
130
0.0
111
1.0
121
0.0
131
0.0
112
0.0
122
1.0
132
0.0
 79
     0
146
0.0
348
2F
 60
     3
 61
     5
292
     1
282
     1
141
0.0
142
0.0
 63
   250
421
  3355443
1001
ACAD_NAV_VCDISPLAY
1070
     3
  0
ENDTAB
  0
TABLE
  2
LTYPE
  5
5
330
0
100
AcDbSymbolTable
 70
    15
  0
LTYPE
  5
5B
330
5
100
AcDbSymbolTableRecord
100
AcDbLinetypeTableRecord
  2
ByBlock
 70
     0
  3

 72
    65
 73
     0
 40
0.0
  0
LTYPE
  5
5C
330
5
100
AcDbSymbolTableRecord
100
AcDbLinetypeTableRecord
  2
ByLayer
 70
     0
  3

 72
    65
 73
     0
 40
0.0
  0
LTYPE
  5
5D
330
5
100
AcDbSymbolTableRecord
100
AcDbLinetypeTableRecord
  2
Continuous
 70
     0
  3
Solid line
 72
    65
 73
     0
 40
0.0
  0
LTYPE
  5
81
330
5
100
AcDbSymbolTableRecord
100
AcDbLinetypeTableRecord
  2
HIDDEN
 70
     0
  3
Hidden __ __ __ __ __ __ __ __ __ __ __ __ __ _
 72
    65
 73
     2
 40
9.525
 49
6.349999999999999
 74
     0
 49
-3.174999999999999
 74
     0
  0
LTYPE
  5
82
330
5
100
AcDbSymbolTableRecord
100
AcDbLinetypeTableRecord
  2
PHANTOM2
 70
     0
  3
Phantom (.5x) ___ _ _ ___ _ _ ___ _ _ ___ _ _
 72
    65
 73
     6
 40
31.75
 49
15.875
 74
     0
 49
-3.174999999999999
 74
     0
 49
3.174999999999999
 74
     0
 49
-3.174999999999999
 74
     0
 49
3.174999999999999
 74
     0
 49
-3.174999999999999
 74
     0
  0
LTYPE
  5
83
330
5
100
AcDbSymbolTableRecord
100
AcDbLinetypeTableRecord
  2
CENTER
 70
     0
  3
Center ____ _ ____ _ ____ _ ____ _ ____ _ ____
 72
    65
 73
     4
 40
50.8
 49
31.75
 74
     0
 49
-6.349999999999999
 74
     0
 49
6.349999999999999
 74
     0
 49
-6.349999999999999
 74
     0
  0
LTYPE
  5
9E
330
5
100
AcDbSymbolTableRecord
100
AcDbLinetypeTableRecord
  2
AM_ISO02W050
 70
     0
  3
__ __ __ __ __ __ __ __ __ __ __ __ __ __ __
 72
    65
 73
     2
 40
7.5
 49
6.0
 74
     0
 49
-1.5
 74
     0
  0
LTYPE
  5
9F
330
5
100
AcDbSymbolTableRecord
100
AcDbLinetypeTableRecord
  2
AM_ISO08W050
 70
     0
  3
____ . ____ . ____ . ____ . ____ . ____ . ____
 72
    65
 73
     4
 40
18.0
 49
12.0
 74
     0
 49
-1.5
 74
     0
 49
3.0
 74
     0
 49
-1.5
 74
     0
  0
LTYPE
  5
A0
330
5
100
AcDbSymbolTableRecord
100
AcDbLinetypeTableRecord
  2
AM_ISO09W050
 70
     0
  3
_____ . . _____ . . _____ . . ____ .. ____
 72
    65
 73
     6
 40
22.5
 49
12.0
 74
     0
 49
-1.5
 74
     0
 49
3.0
 74
     0
 49
-1.5
 74
     0
 49
3.0
 74
     0
 49
-1.5
 74
     0
  0
LTYPE
  5
A1
330
5
100
AcDbSymbolTableRecord
100
AcDbLinetypeTableRecord
  2
Amconstr
 70
     0
  3
_______________________
 72
    65
 73
     2
 40
9999.0
 49
9999.0
 74
     0
 49
0.0
 74
     0
  0
LTYPE
  5
A2
330
5
100
AcDbSymbolTableRecord
100
AcDbLinetypeTableRecord
  2
AM_ISO08W050x2
 70
     0
  3
__ . __ . __ . __ . __ . __
 72
    65
 73
     4
 40
9.0
 49
6.0
 74
     0
 49
-0.75
 74
     0
 49
1.5
 74
     0
 49
-0.75
 74
     0
  0
LTYPE
  5
A3
330
5
100
AcDbSymbolTableRecord
100
AcDbLinetypeTableRecord
  2
AM_ISO02W050x2
 70
     0
  3
 _ _ _ _ _ _ _ _ _ _ _ _
 72
    65
 73
     2
 40
3.75
 49
3.0
 74
     0
 49
-0.75
 74
     0
  0
LTYPE
  5
A4
330
5
100
AcDbSymbolTableRecord
100
AcDbLinetypeTableRecord
  2
Amzigzag
 70
     0
  3
/\/-/\/-/\/-/\/-/\/-/\/
 72
    65
 73
     2
 40
11.0001
 49
0.0001
 74
     4
 75
   136
340
9B
 46
0.04
 50
0.0
 44
0.0
 45
0.0
 49
-11.0
 74
     0
  0
LTYPE
  5
A5
330
5
100
AcDbSymbolTableRecord
100
AcDbLinetypeTableRecord
  2
ACISOWELD
 70
     0
  3
_ _ _ _ _
 72
    65
 73
     2
 40
2.0
 49
2.0
 74
     0
 49
-1.0
 74
     0
  0
LTYPE
  5
A6
330
5
100
AcDbSymbolTableRecord
100
AcDbLinetypeTableRecord
  2
ACISOTGL
 70
     0
  3
_ _ _ _ _
 72
    65
 73
     2
 40
3.0
 49
2.0
 74
     0
 49
-1.0
 74
     0
  0
LTYPE
  5
A7
330
5
100
AcDbSymbolTableRecord
100
AcDbLinetypeTableRecord
  2
ACISOTGB
 70
     0
  3
__ . . __ . .
 72
    65
 73
     6
 40
9.0
 49
4.0
 74
     0
 49
-1.0
 74
     0
 49
1.0
 74
     0
 49
-1.0
 74
     0
 49
1.0
 74
     0
 49
-1.0
 74
     0
  0
ENDTAB
  0
TABLE
  2
LAYER
  5
2
330
0
100
AcDbSymbolTable
 70
    10
  0
LAYER
  5
54
330
2
100
AcDbSymbolTableRecord
100
AcDbLayerTableRecord
  2
0
 70
     0
 62
     7
  6
Continuous
370
    -3
390
F
347
21
348
0
1001
AcAecLayerStandard
1000

1000

  0
LAYER
  5
79
330
2
100
AcDbSymbolTableRecord
100
AcDbLayerTableRecord
  2
Defpoints
 70
     0
 62
     7
  6
Continuous
290
     0
370
    -3
390
F
347
21
348
0
1001
AcAecLayerStandard
1000

1000

  0
LAYER
  5
B5
330
2
100
AcDbSymbolTableRecord
100
AcDbLayerTableRecord
  2
Visible
 70
     0
 62
     7
  6
Continuous
370
    50
390
F
347
21
348
0
  0
LAYER
  5
36B
330
2
100
AcDbSymbolTableRecord
100
AcDbLayerTableRecord
  2
BORDER
 70
     0
 62
     7
  6
Continuous
370
    25
390
F
347
21
348
0
1001
AcAecLayerStandard
1000

1000

1001
AcCmTransparency
1071
        0
  0
LAYER
  5
3B1
330
2
100
AcDbSymbolTableRecord
100
AcDbLayerTableRecord
  2
TITLEBLOCK
 70
     0
 62
     7
  6
Continuous
370
    35
390
F
347
21
348
0
1001
AcAecLayerStandard
1000

1000

1001
AcCmTransparency
1071
        0
  0
LAYER
  5
3FD
330
2
100
AcDbSymbolTableRecord
100
AcDbLayerTableRecord
  2
Hatching
 70
     0
 62
     7
  6
Continuous
370
    25
390
F
347
21
348
0
  0
LAYER
  5
407
330
2
100
AcDbSymbolTableRecord
100
AcDbLayerTableRecord
  2
View Labels
 70
     0
 62
     7
  6
Continuous
370
    25
390
F
347
21
348
0
  0
LAYER
  5
409
330
2
100
AcDbSymbolTableRecord
100
AcDbLayerTableRecord
  2
FD_Dimensions
 70
     0
 62
     7
  6
Continuous
370
    25
390
F
347
21
348
0
  0
LAYER
  5
483
330
2
100
AcDbSymbolTableRecord
100
AcDbLayerTableRecord
  2
Section Lines
 70
     0
 62
     7
  6
Continuous
370
    25
390
F
347
21
348
0
  0
LAYER
  5
48C
330
2
100
AcDbSymbolTableRecord
100
AcDbLayerTableRecord
  2
Detail Boundary
 70
     0
 62
     7
  6
Continuous
370
    25
390
F
347
21
348
0
  0
ENDTAB
  0
TABLE
  2
STYLE
  5
3
330
0
100
AcDbSymbolTable
 70
     5
  0
STYLE
  5
55
330
3
100
AcDbSymbolTableRecord
100
AcDbTextStyleTableRecord
  2
Standard
 70
     0
 40
0.0
 41
1.0
 50
0.0
 71
     0
 42
3.5
  3
arial.ttf
  4

1001
ACAD
1000
Arial
1071
       34
  0
STYLE
  5
5A
330
3
100
AcDbSymbolTableRecord
100
AcDbTextStyleTableRecord
  2
Annotative
 70
     0
 40
0.0
 41
1.0
 50
0.0
 71
     0
 42
0.2
  3
txt
  4

1001
AcadAnnotative
1000
AnnotativeData
1002
{
1070
     1
1070
     1
1002
}
  0
STYLE
  5
9A
330
3
100
AcDbSymbolTableRecord
100
AcDbTextStyleTableRecord
  2
FusionTitle
 70
     0
 40
0.0
 41
1.0
 50
0.0
 71
     0
 42
2.5
  3
arial.ttf
  4

1001
ACAD
1000
Arial
1071
       34
  0
STYLE
  5
9B
330
3
100
AcDbSymbolTableRecord
100
AcDbTextStyleTableRecord
  2

 70
     1
 40
0.0
 41
1.0
 50
0.0
 71
     0
 42
10.0
  3
genltshp.shx
  4

  0
STYLE
  5
9C
330
3
100
AcDbSymbolTableRecord
100
AcDbTextStyleTableRecord
  2
ACISOGDT
 70
     0
 40
0.0
 41
1.0
 50
0.0
 71
     0
 42
10.0
  3
amgdt.shx
  4

  0
ENDTAB
  0
TABLE
  2
VIEW
  5
6
330
0
100
AcDbSymbolTable
 70
     0
  0
ENDTAB
  0
TABLE
  2
UCS
  5
7
330
0
100
AcDbSymbolTable
 70
     0
  0
ENDTAB
  0
TABLE
  2
APPID
  5
9
330
0
100
AcDbSymbolTable
 70
    28
  0
APPID
  5
56
330
9
100
AcDbSymbolTableRecord
100
AcDbRegAppTableRecord
  2
ACAD
 70
     0
  0
APPID
  5
5E
330
9
100
AcDbSymbolTableRecord
100
AcDbRegAppTableRecord
  2
AcadAnnotative
 70
     0
  0
APPID
  5
78
330
9
100
AcDbSymbolTableRecord
100
AcDbRegAppTableRecord
  2
ACAD_PSEXT
 70
     0
  0
APPID
  5
7A
330
9
100
AcDbSymbolTableRecord
100
AcDbRegAppTableRecord
  2
MCAD_NO_VIS
 70
     0
  0
APPID
  5
7B
330
9
100
AcDbSymbolTableRecord
100
AcDbRegAppTableRecord
  2
ACAD_TEMP_GRAPHIC
 70
     0
  0
APPID
  5
84
330
9
100
AcDbSymbolTableRecord
100
AcDbRegAppTableRecord
  2
ACAD_DSTYLE_DIMJAG
 70
     0
  0
APPID
  5
85
330
9
100
AcDbSymbolTableRecord
100
AcDbRegAppTableRecord
  2
ACAD_DSTYLE_DIMTALN
 70
     0
  0
APPID
  5
86
330
9
100
AcDbSymbolTableRecord
100
AcDbRegAppTableRecord
  2
ACAD_NAV_VCDISPLAY
 70
     0
  0
APPID
  5
87
330
9
100
AcDbSymbolTableRecord
100
AcDbRegAppTableRecord
  2
AcAecLayerStandard
 70
     0
  0
APPID
  5
88
330
9
100
AcDbSymbolTableRecord
100
AcDbRegAppTableRecord
  2
AcCmTransparency
 70
     0
  0
APPID
  5
89
330
9
100
AcDbSymbolTableRecord
100
AcDbRegAppTableRecord
  2
AcDbDynamicBlockGUID
 70
     0
  0
APPID
  5
8A
330
9
100
AcDbSymbolTableRecord
100
AcDbRegAppTableRecord
  2
ACAD_DSTYLE_DIMBREAK
 70
     0
  0
APPID
  5
8B
330
9
100
AcDbSymbolTableRecord
100
AcDbRegAppTableRecord
  2
ACAD_TC
 70
     0
  0
APPID
  5
8C
330
9
100
AcDbSymbolTableRecord
100
AcDbRegAppTableRecord
  2
FUSIONTITLEBLOCK
 70
     0
  0
APPID
  5
8D
330
9
100
AcDbSymbolTableRecord
100
AcDbRegAppTableRecord
  2
FUSIONCURRENTTITLEBLOCK
 70
     0
  0
APPID
  5
8E
330
9
100
AcDbSymbolTableRecord
100
AcDbRegAppTableRecord
  2
AcSynergy
 70
     0
  0
APPID
  5
8F
330
9
100
AcDbSymbolTableRecord
100
AcDbRegAppTableRecord
  2
GENIUS_GENSCREG_15
 70
     0
  0
APPID
  5
90
330
9
100
AcDbSymbolTableRecord
100
AcDbRegAppTableRecord
  2
GENIUS_GENOBJ-N-SDF_13
 70
     0
  0
APPID
  5
91
330
9
100
AcDbSymbolTableRecord
100
AcDbRegAppTableRecord
  2
GENIUS_GENODEF_13
 70
     0
  0
APPID
  5
92
330
9
100
AcDbSymbolTableRecord
100
AcDbRegAppTableRecord
  2
ACAD_MODELDOC_XFORM
 70
     0
  0
APPID
  5
93
330
9
100
AcDbSymbolTableRecord
100
AcDbRegAppTableRecord
  2
SYNERGY_BODY_TBR_ID
 70
     0
  0
APPID
  5
94
330
9
100
AcDbSymbolTableRecord
100
AcDbRegAppTableRecord
  2
FusionCutBodyId
 70
     0
  0
APPID
  5
95
330
9
100
AcDbSymbolTableRecord
100
AcDbRegAppTableRecord
  2
ACAD_DIMASSOC_CALC_DIMLFAC
 70
     0
  0
APPID
  5
96
330
9
100
AcDbSymbolTableRecord
100
AcDbRegAppTableRecord
  2
ACAD_DIMASSOC_DIMLFAC
 70
     0
  0
APPID
  5
97
330
9
100
AcDbSymbolTableRecord
100
AcDbRegAppTableRecord
  2
ACAD_DIMASSOC_OVERRIDDEN_DIMLFAC
 70
     0
  0
APPID
  5
98
330
9
100
AcDbSymbolTableRecord
100
AcDbRegAppTableRecord
  2
ACAD_DSTYLE_DIMJAG_POSITION
 70
     0
  0
APPID
  5
99
330
9
100
AcDbSymbolTableRecord
100
AcDbRegAppTableRecord
  2
ACATTRIBSERVICES
 70
     0
  0
APPID
  5
939
330
9
100
AcDbSymbolTableRecord
100
AcDbRegAppTableRecord
  2
ACAD_EXEMPT_FROM_CAD_STANDARDS
 70
     0
  0
ENDTAB
  0
TABLE
  2
DIMSTYLE
  5
A
330
0
100
AcDbSymbolTable
 70
     5
100
AcDbDimStyleTable
 71
     1
340
AB
  0
DIMSTYLE
105
58
330
A
100
AcDbSymbolTableRecord
100
AcDbDimStyleTableRecord
  2
Standard
 70
     0
 41
3.5
 42
2.1
 43
10.5
 44
2.1
 78
    12
 79
     3
140
3.5
143
0.03937
146
0.714286
147
1.399999999999999
179
     2
271
     2
272
     2
284
    12
340
55
  0
DIMSTYLE
105
59
330
A
100
AcDbSymbolTableRecord
100
AcDbDimStyleTableRecord
  2
Annotative
 70
     0
 40
0.0
 41
3.5
 42
2.1
 43
10.5
 44
2.1
 73
     0
 74
     0
 77
     1
 78
    12
 79
     3
140
3.5
141
2.5
143
0.03937
146
0.714286
147
1.399999999999999
171
     3
172
     1
179
     2
271
     2
272
     2
274
     3
278
    44
283
     0
284
    12
340
55
1001
AcadAnnotative
1000
AnnotativeData
1002
{
1070
     1
1070
     1
1002
}
  0
DIMSTYLE
105
AA
330
A
100
AcDbSymbolTableRecord
100
AcDbDimStyleTableRecord
  2
ISO-25
 70
     0
  4
in
 41
3.5
 42
2.1
 43
10.5
 44
2.1
 47
0.1
 48
0.1
 73
     0
 74
     0
 77
     1
 78
    12
 79
     3
140
3.5
141
0.0
143
0.03937
146
0.714286
147
1.399999999999999
171
     4
172
     1
176
   256
177
   256
178
   256
179
     2
271
     2
272
     2
274
     4
283
     0
284
    12
285
     8
340
55
1001
ACAD_DSTYLE_DIMJAG
1070
   388
1040
1.5
1001
ACAD_DSTYLE_DIMTALN
1070
   392
1070
     1
1001
ACAD_DSTYLE_DIMBREAK
1070
   391
1040
3.5
  0
DIMSTYLE
105
AB
330
A
100
AcDbSymbolTableRecord
100
AcDbDimStyleTableRecord
  2
Dim-ISO-25
 70
     0
 41
3.5
 42
2.1
 43
10.5
 44
2.1
 47
0.1
 48
0.1
 73
     0
 74
     0
 77
     1
 78
    12
 79
     3
140
3.5
141
0.0
143
0.03937
146
0.714286
147
1.399999999999999
172
     1
179
     2
271
     2
272
     2
274
     4
283
     0
284
    12
285
    12
286
    12
340
55
1001
ACAD_DSTYLE_DIMJAG
1070
   388
1040
1.5
1001
ACAD_DSTYLE_DIMTALN
1070
   392
1070
     1
1001
ACAD_DSTYLE_DIMBREAK
1070
   391
1040
3.5
  0
ENDTAB
  0
TABLE
  2
BLOCK_RECORD
  5
1
330
0
100
AcDbSymbolTable
 70
    21
  0
BLOCK_RECORD
  5
70
102
{ACAD_XDICTIONARY
360
AE
102
}
330
1
100
AcDbSymbolTableRecord
100
AcDbBlockTableRecord
  2
*Model_Space
340
73
 70
     0
280
     1
281
     0
  0
BLOCK_RECORD
  5
6C
330
1
100
AcDbSymbolTableRecord
100
AcDbBlockTableRecord
  2
*Paper_Space
340
6F
 70
     0
280
     1
281
     0
  0
BLOCK_RECORD
  5
74
330
1
100
AcDbSymbolTableRecord
100
AcDbBlockTableRecord
  2
*Paper_Space0
340
77
 70
     0
280
     1
281
     0
  0
BLOCK_RECORD
  5
36C
102
{ACAD_XDICTIONARY
360
36D
102
}
330
1
100
AcDbSymbolTableRecord
100
AcDbBlockTableRecord
  2
ISO_A3_SHEET
340
0
310
2800000020000000200000000100080000000000000400000000000000000000000000000000000000000000000080000080000000808000800000008000800080800000C0C0C000C0DCC000F0CAA6000020400000206000002080000020A0000020C0000020E00000400000004020000040400000406000004080000040A0
310
000040C0000040E00000600000006020000060400000606000006080000060A0000060C0000060E00000800000008020000080400000806000008080000080A0000080C0000080E00000A0000000A0200000A0400000A0600000A0800000A0A00000A0C00000A0E00000C0000000C0200000C0400000C0600000C0800000C0
310
A00000C0C00000C0E00000E0000000E0200000E0400000E0600000E0800000E0A00000E0C00000E0E00040000000400020004000400040006000400080004000A0004000C0004000E00040200000402020004020400040206000402080004020A0004020C0004020E000404000004040200040404000404060004040800040
310
40A0004040C0004040E00040600000406020004060400040606000406080004060A0004060C0004060E00040800000408020004080400040806000408080004080A0004080C0004080E00040A0000040A0200040A0400040A0600040A0800040A0A00040A0C00040A0E00040C0000040C0200040C0400040C0600040C08000
310
40C0A00040C0C00040C0E00040E0000040E0200040E0400040E0600040E0800040E0A00040E0C00040E0E00080000000800020008000400080006000800080008000A0008000C0008000E00080200000802020008020400080206000802080008020A0008020C0008020E00080400000804020008040400080406000804080
310
008040A0008040C0008040E00080600000806020008060400080606000806080008060A0008060C0008060E00080800000808020008080400080806000808080008080A0008080C0008080E00080A0000080A0200080A0400080A0600080A0800080A0A00080A0C00080A0E00080C0000080C0200080C0400080C0600080C0
310
800080C0A00080C0C00080C0E00080E0000080E0200080E0400080E0600080E0800080E0A00080E0C00080E0E000C0000000C0002000C0004000C0006000C0008000C000A000C000C000C000E000C0200000C0202000C0204000C0206000C0208000C020A000C020C000C020E000C0400000C0402000C0404000C0406000C0
310
408000C040A000C040C000C040E000C0600000C0602000C0604000C0606000C0608000C060A000C060C000C060E000C0800000C0802000C0804000C0806000C0808000C080A000C080C000C080E000C0A00000C0A02000C0A04000C0A06000C0A08000C0A0A000C0A0C000C0A0E000C0C00000C0C02000C0C04000C0C06000
310
C0C08000C0C0A000F0FBFF00A4A0A000808080000000FF0000FF000000FFFF00FF000000FF00FF00FFFF0000FFFFFF0049494949494949494949494949494949494949494949494949494949494949494949494949494949494949494949494949494949494949494949494949494949494949494949494949494949494949
310
494949494949494949494949494949494949494949494949494949494949494949494949494949494949494949494949494949494949494949494949494949494949494949494949494949494949494949494949494949494949494949494949494949494949494949494949494949494949FFFFFFFFFFFFFFFFFFFFFFFFFF
310
FFFFFFFFFFFFFFFFFFFFFFFFFFFFFFFFFF4949FF49FF494949494949494949494949FF494949494949494949494949FFFF49494949FF49494949494949494949494949494949494949494949494949FF49494949FFFF49494949494949494949494949494949494949494949494949FF4949494949FF494949494949494949
310
49494949494949494949494949494949FF4949494949FF49494949494949494949494949494949494949494949494949FF49494949FFFF49494949494949494949494949494949494949494949494949FF4949494949FF49494949494949494949494949494949494949494949494949FF4949494949FF4949494949494949
310
4949494949494949494949494949494949FF4949494949FF49494949494949494949494949494949494949494949494949FF49494949FFFF49494949494949494949494949494949494949494949494949FF4949494949FF49494949494949494949494949494949494949494949494949FF4949494949FF49494949494949
310
494949494949494949494949494949494949FF49494949FFFF49494949494949494949494949494949494949494949494949FF4949494949FF49494949494949494949494949494949494949494949494949FF4949494949FF49494949494949494949494949494949494949494949494949FF49494949FFFF494949494949
310
49494949494949494949494949494949494949FF4949494949FF49494949494949494949494949494949494949494949494949FF494949FF49FF494949494949494949494949FF494949494949494949494949FFFF4949FFFFFFFFFFFFFFFFFFFFFFFFFFFFFFFFFFFFFFFFFFFFFFFFFFFFFFFFFFFF49494949494949494949
310
49494949494949494949494949494949494949494949494949494949494949494949494949494949494949494949494949494949494949494949494949494949494949494949494949494949494949494949494949494949494949494949494949494949494949494949494949494949494949494949494949494949494949
310
4949494949494949494949494949494949494949494949494949494949494949494949494949494949494949494949494949494949494949
 70
     4
280
     1
281
     0
1001
AcDbDynamicBlockGUID
1000
{B4874B5E-8040-BF49-A9B6-B81412F7B0AC}
  0
BLOCK_RECORD
  5
3B2
102
{ACAD_XDICTIONARY
360
3B3
102
}
330
1
100
AcDbSymbolTableRecord
100
AcDbBlockTableRecord
  2
ISO_TITLEBLOCK
340
0
310
2800000020000000200000000100080000000000000400000000000000000000000000000000000000000000000080000080000000808000800000008000800080800000C0C0C000C0DCC000F0CAA6000020400000206000002080000020A0000020C0000020E00000400000004020000040400000406000004080000040A0
310
000040C0000040E00000600000006020000060400000606000006080000060A0000060C0000060E00000800000008020000080400000806000008080000080A0000080C0000080E00000A0000000A0200000A0400000A0600000A0800000A0A00000A0C00000A0E00000C0000000C0200000C0400000C0600000C0800000C0
310
A00000C0C00000C0E00000E0000000E0200000E0400000E0600000E0800000E0A00000E0C00000E0E00040000000400020004000400040006000400080004000A0004000C0004000E00040200000402020004020400040206000402080004020A0004020C0004020E000404000004040200040404000404060004040800040
310
40A0004040C0004040E00040600000406020004060400040606000406080004060A0004060C0004060E00040800000408020004080400040806000408080004080A0004080C0004080E00040A0000040A0200040A0400040A0600040A0800040A0A00040A0C00040A0E00040C0000040C0200040C0400040C0600040C08000
310
40C0A00040C0C00040C0E00040E0000040E0200040E0400040E0600040E0800040E0A00040E0C00040E0E00080000000800020008000400080006000800080008000A0008000C0008000E00080200000802020008020400080206000802080008020A0008020C0008020E00080400000804020008040400080406000804080
310
008040A0008040C0008040E00080600000806020008060400080606000806080008060A0008060C0008060E00080800000808020008080400080806000808080008080A0008080C0008080E00080A0000080A0200080A0400080A0600080A0800080A0A00080A0C00080A0E00080C0000080C0200080C0400080C0600080C0
310
800080C0A00080C0C00080C0E00080E0000080E0200080E0400080E0600080E0800080E0A00080E0C00080E0E000C0000000C0002000C0004000C0006000C0008000C000A000C000C000C000E000C0200000C0202000C0204000C0206000C0208000C020A000C020C000C020E000C0400000C0402000C0404000C0406000C0
310
408000C040A000C040C000C040E000C0600000C0602000C0604000C0606000C0608000C060A000C060C000C060E000C0800000C0802000C0804000C0806000C0808000C080A000C080C000C080E000C0A00000C0A02000C0A04000C0A06000C0A08000C0A0A000C0A0C000C0A0E000C0C00000C0C02000C0C04000C0C06000
310
C0C08000C0C0A000F0FBFF00A4A0A000808080000000FF0000FF000000FFFF00FF000000FF00FF00FFFF0000FFFFFF0049494949494949494949494949494949494949494949494949494949494949494949494949494949494949494949494949494949494949494949494949494949494949494949494949494949494949
310
49494949494949494949494949494949494949494949494949494949494949494949494949494949494949494949494949494949494949494949494949494949494949494949494949494949494949494949494949494949494949494949494949494949494949494949494949494949494949494949494949494949494949
310
49494949494949494949494949494949494949494949494949494949494949494949494949494949494949494949494949494949494949494949494949494949494949494949494949494949494949494949494949494949494949494949494949494949494949494949494949494949494949494949494949494949494949
310
49494949494949494949494949494949494949494949494949494949494949494949494949494949494949494949494949494949FFFFFFFFFFFFFFFFFFFFFFFFFFFFFFFFFFFFFFFFFFFFFFFFFFFFFF4949494949FF4949494949494949FFFFFFFFFF49494949FFFFFFFFFFFFFFFFFFFF49494949FF4949494949494949FFFF
310
FFFFFF494949FFFFFFFFFFFFFFFFFFFF4949494949FF4949494949494949FFFFFFFFFF494949FFFFFFFFFFFFFFFFFFFF4949494949FF4949494949494949FFFFFFFFFFFFFFFFFFFFFFFFFFFFFFFFFFFF4949494949FFFFFFFFFFFFFFFFFFFFFFFFFFFFFFFFFFFFFFFFFFFFFFFFFFFFFF4949494949FFFFFF49FFFFFFFFFFFF
310
FFFFFFFFFFFFFFFFFFFFFFFFFFFFFFFFFFFFFFFF4949FFFFFFFFFFFFFFFFFFFFFFFFFFFFFFFFFFFFFFFFFFFFFFFFFFFFFF494949494949494949494949494949494949494949494949494949494949494949494949494949494949494949494949494949494949494949494949494949494949494949494949494949494949
310
49494949494949494949494949494949494949494949494949494949494949494949494949494949494949494949494949494949494949494949494949494949494949494949494949494949494949494949494949494949494949494949494949494949494949494949494949494949494949494949494949494949494949
310
49494949494949494949494949494949494949494949494949494949494949494949494949494949494949494949494949494949494949494949494949494949494949494949494949494949494949494949494949494949494949494949494949494949494949494949494949494949494949494949494949494949494949
310
4949494949494949494949494949494949494949494949494949494949494949494949494949494949494949494949494949494949494949
 70
     4
280
     1
281
     0
1001
AcDbDynamicBlockGUID
1000
{BCD52D05-323A-B54A-8A21-1B84008CF9CB}
1001
FUSIONTITLEBLOCK
1000
TitleBlock
  0
BLOCK_RECORD
  5
40A
330
1
100
AcDbSymbolTableRecord
100
AcDbBlockTableRecord
  2
*D3
340
0
 70
     0
280
     1
281
     0
  0
BLOCK_RECORD
  5
417
330
1
100
AcDbSymbolTableRecord
100
AcDbBlockTableRecord
  2
*D4
340
0
 70
     0
280
     1
281
     0
  0
BLOCK_RECORD
  5
424
330
1
100
AcDbSymbolTableRecord
100
AcDbBlockTableRecord
  2
*D5
340
0
 70
     0
280
     1
281
     0
  0
BLOCK_RECORD
  5
43C
330
1
100
AcDbSymbolTableRecord
100
AcDbBlockTableRecord
  2
*D6
340
0
 70
     0
280
     1
281
     0
  0
BLOCK_RECORD
  5
449
330
1
100
AcDbSymbolTableRecord
100
AcDbBlockTableRecord
  2
*D7
340
0
 70
     0
280
     1
281
     0
  0
BLOCK_RECORD
  5
456
330
1
100
AcDbSymbolTableRecord
100
AcDbBlockTableRecord
  2
*D8
340
0
 70
     0
280
     1
281
     0
  0
BLOCK_RECORD
  5
463
330
1
100
AcDbSymbolTableRecord
100
AcDbBlockTableRecord
  2
*D9
340
0
 70
     0
280
     1
281
     0
  0
BLOCK_RECORD
  5
470
330
1
100
AcDbSymbolTableRecord
100
AcDbBlockTableRecord
  2
*D10
340
0
 70
     0
280
     1
281
     0
  0
BLOCK_RECORD
  5
492
330
1
100
AcDbSymbolTableRecord
100
AcDbBlockTableRecord
  2
*D11
340
0
 70
     0
280
     1
281
     0
  0
BLOCK_RECORD
  5
49E
330
1
100
AcDbSymbolTableRecord
100
AcDbBlockTableRecord
  2
*D12
340
0
 70
     0
280
     1
281
     0
  0
BLOCK_RECORD
  5
4AA
330
1
100
AcDbSymbolTableRecord
100
AcDbBlockTableRecord
  2
*D13
340
0
 70
     0
280
     1
281
     0
  0
BLOCK_RECORD
  5
4B8
330
1
100
AcDbSymbolTableRecord
100
AcDbBlockTableRecord
  2
*D14
340
0
 70
     0
280
     1
281
     0
  0
BLOCK_RECORD
  5
4C4
330
1
100
AcDbSymbolTableRecord
100
AcDbBlockTableRecord
  2
*D15
340
0
 70
     0
280
     1
281
     0
  0
BLOCK_RECORD
  5
4D0
330
1
100
AcDbSymbolTableRecord
100
AcDbBlockTableRecord
  2
*D16
340
0
 70
     0
280
     1
281
     0
  0
BLOCK_RECORD
  5
4DC
330
1
100
AcDbSymbolTableRecord
100
AcDbBlockTableRecord
  2
*D17
340
0
 70
     0
280
     1
281
     0
  0
BLOCK_RECORD
  5
4E8
330
1
100
AcDbSymbolTableRecord
100
AcDbBlockTableRecord
  2
*D18
340
0
 70
     0
280
     1
281
     0
  0
BLOCK_RECORD
  5
941
330
1
100
AcDbSymbolTableRecord
100
AcDbBlockTableRecord
  2
*D20
340
0
 70
     0
280
     1
281
     0
  0
ENDTAB
  0
ENDSEC
  0
SECTION
  2
BLOCKS
  0
BLOCK
  5
71
330
70
100
AcDbEntity
  8
0
100
AcDbBlockBegin
  2
*Model_Space
 70
     0
 10
0.0
 20
0.0
 30
0.0
  3
*Model_Space
  1

  0
ENDBLK
  5
72
330
70
100
AcDbEntity
  8
0
100
AcDbBlockEnd
  0
BLOCK
  5
6D
330
6C
100
AcDbEntity
 67
     1
  8
0
100
AcDbBlockBegin
  2
*Paper_Space
 70
     0
 10
0.0
 20
0.0
 30
0.0
  3
*Paper_Space
  1

  0
ENDBLK
  5
6E
330
6C
100
AcDbEntity
 67
     1
  8
0
100
AcDbBlockEnd
  0
BLOCK
  5
75
330
74
100
AcDbEntity
 67
     1
  8
0
100
AcDbBlockBegin
  2
*Paper_Space0
 70
     0
 10
0.0
 20
0.0
 30
0.0
  3
*Paper_Space0
  1

  0
ENDBLK
  5
76
330
74
100
AcDbEntity
 67
     1
  8
0
100
AcDbBlockEnd
  0
BLOCK
  5
36E
330
36C
100
AcDbEntity
  8
0
100
AcDbBlockBegin
  2
ISO_A3_SHEET
 70
     0
 10
0.0
 20
0.0
 30
0.0
  3
ISO_A3_SHEET
  1

  0
LINE
  5
36F
330
36C
100
AcDbEntity
  8
Defpoints
100
AcDbLine
 10
0.0
 20
0.0
 30
0.0
 11
15.0
 21
0.0
 31
0.0
  0
LINE
  5
370
330
36C
100
AcDbEntity
  8
Defpoints
100
AcDbLine
 10
405.0
 20
0.0
 30
0.0
 11
420.0
 21
0.0
 31
0.0
  0
LINE
  5
371
330
36C
100
AcDbEntity
  8
BORDER
100
AcDbLine
 10
20.0
 20
10.0
 30
0.0
 11
410.0
 21
10.0
 31
0.0
  0
LINE
  5
372
330
36C
100
AcDbEntity
  8
Defpoints
100
AcDbLine
 10
420.0
 20
0.0
 30
0.0
 11
420.0
 21
15.0
 31
0.0
  0
LINE
  5
373
330
36C
100
AcDbEntity
  8
Defpoints
100
AcDbLine
 10
420.0
 20
282.0
 30
0.0
 11
420.0
 21
297.0
 31
0.0
  0
LINE
  5
374
330
36C
100
AcDbEntity
  8
Defpoints
100
AcDbLine
 10
420.0
 20
297.0
 30
0.0
 11
405.0
 21
297.0
 31
0.0
  0
LINE
  5
375
330
36C
100
AcDbEntity
  8
Defpoints
100
AcDbLine
 10
15.0
 20
297.0
 30
0.0
 11
0.0
 21
297.0
 31
0.0
  0
LINE
  5
376
330
36C
100
AcDbEntity
  8
BORDER
100
AcDbLine
 10
410.0
 20
287.0
 30
0.0
 11
20.0
 21
287.0
 31
0.0
  0
LINE
  5
377
330
36C
100
AcDbEntity
  8
Defpoints
100
AcDbLine
 10
0.0
 20
297.0
 30
0.0
 11
0.0
 21
282.0
 31
0.0
  0
LINE
  5
378
330
36C
100
AcDbEntity
  8
Defpoints
100
AcDbLine
 10
0.0
 20
15.0
 30
0.0
 11
0.0
 21
0.0
 31
0.0
  0
LINE
  5
379
330
36C
100
AcDbEntity
  8
BORDER
100
AcDbLine
 10
20.0
 20
287.0
 30
0.0
 11
20.0
 21
10.0
 31
0.0
  0
LINE
  5
37A
330
36C
100
AcDbEntity
  8
BORDER
100
AcDbLine
 10
410.0
 20
287.0
 30
0.0
 11
410.0
 21
10.0
 31
0.0
  0
LINE
  5
37B
330
36C
100
AcDbEntity
  8
BORDER
100
AcDbLine
 10
215.0
 20
5.0
 30
0.0
 11
215.0
 21
15.0
 31
0.0
  0
LINE
  5
37C
330
36C
100
AcDbEntity
  8
BORDER
100
AcDbLine
 10
215.0
 20
292.0
 30
0.0
 11
215.0
 21
282.0
 31
0.0
  0
LINE
  5
37D
330
36C
100
AcDbEntity
  8
BORDER
100
AcDbLine
 10
265.0
 20
292.0
 30
0.0
 11
265.0
 21
287.0
 31
0.0
  0
LINE
  5
37E
330
36C
100
AcDbEntity
  8
BORDER
100
AcDbLine
 10
315.0
 20
292.0
 30
0.0
 11
315.0
 21
287.0
 31
0.0
  0
LINE
  5
37F
330
36C
100
AcDbEntity
  8
BORDER
100
AcDbLine
 10
365.0
 20
292.0
 30
0.0
 11
365.0
 21
287.0
 31
0.0
  0
LINE
  5
380
330
36C
100
AcDbEntity
  8
BORDER
100
AcDbLine
 10
165.0
 20
292.0
 30
0.0
 11
165.0
 21
287.0
 31
0.0
  0
LINE
  5
381
330
36C
100
AcDbEntity
  8
BORDER
100
AcDbLine
 10
115.0
 20
292.0
 30
0.0
 11
115.0
 21
287.0
 31
0.0
  0
LINE
  5
382
330
36C
100
AcDbEntity
  8
BORDER
100
AcDbLine
 10
65.0
 20
292.0
 30
0.0
 11
65.0
 21
287.0
 31
0.0
  0
LINE
  5
383
330
36C
100
AcDbEntity
  8
BORDER
100
AcDbLine
 10
15.0
 20
148.5
 30
0.0
 11
25.0
 21
148.5
 31
0.0
  0
LINE
  5
384
330
36C
100
AcDbEntity
  8
BORDER
100
AcDbLine
 10
15.0
 20
100.66667
 30
0.0
 11
20.0
 21
100.66667
 31
0.0
  0
LINE
  5
385
330
36C
100
AcDbEntity
  8
BORDER
100
AcDbLine
 10
15.0
 20
52.83333999999999
 30
0.0
 11
20.0
 21
52.83333999999999
 31
0.0
  0
LINE
  5
386
330
36C
100
AcDbEntity
  8
BORDER
100
AcDbLine
 10
15.0
 20
196.33333
 30
0.0
 11
20.0
 21
196.33333
 31
0.0
  0
LINE
  5
387
330
36C
100
AcDbEntity
  8
BORDER
100
AcDbLine
 10
15.0
 20
244.16666
 30
0.0
 11
20.0
 21
244.16666
 31
0.0
  0
LINE
  5
388
330
36C
100
AcDbEntity
  8
BORDER
100
AcDbLine
 10
415.0
 20
148.5
 30
0.0
 11
405.0
 21
148.5
 31
0.0
  0
LINE
  5
389
330
36C
100
AcDbEntity
  8
BORDER
100
AcDbLine
 10
265.0
 20
5.0
 30
0.0
 11
265.0
 21
10.0
 31
0.0
  0
LINE
  5
38A
330
36C
100
AcDbEntity
  8
BORDER
100
AcDbLine
 10
315.0
 20
5.0
 30
0.0
 11
315.0
 21
10.0
 31
0.0
  0
LINE
  5
38B
330
36C
100
AcDbEntity
  8
BORDER
100
AcDbLine
 10
365.0
 20
5.0
 30
0.0
 11
365.0
 21
10.0
 31
0.0
  0
LINE
  5
38C
330
36C
100
AcDbEntity
  8
BORDER
100
AcDbLine
 10
165.0
 20
5.0
 30
0.0
 11
165.0
 21
10.0
 31
0.0
  0
LINE
  5
38D
330
36C
100
AcDbEntity
  8
BORDER
100
AcDbLine
 10
115.0
 20
5.0
 30
0.0
 11
115.0
 21
10.0
 31
0.0
  0
LINE
  5
38E
330
36C
100
AcDbEntity
  8
BORDER
100
AcDbLine
 10
65.0
 20
5.0
 30
0.0
 11
65.0
 21
10.0
 31
0.0
  0
LINE
  5
38F
330
36C
100
AcDbEntity
  8
BORDER
100
AcDbLine
 10
415.0
 20
100.66667
 30
0.0
 11
410.0
 21
100.66667
 31
0.0
  0
LINE
  5
390
330
36C
100
AcDbEntity
  8
BORDER
100
AcDbLine
 10
415.0
 20
52.83333999999999
 30
0.0
 11
410.0
 21
52.83333999999999
 31
0.0
  0
LINE
  5
391
330
36C
100
AcDbEntity
  8
BORDER
100
AcDbLine
 10
415.0
 20
196.33333
 30
0.0
 11
410.0
 21
196.33333
 31
0.0
  0
LINE
  5
392
330
36C
100
AcDbEntity
  8
BORDER
100
AcDbLine
 10
415.0
 20
244.16666
 30
0.0
 11
410.0
 21
244.16666
 31
0.0
  0
TEXT
  5
393
330
36C
100
AcDbEntity
  8
BORDER
100
AcDbText
 10
39.02881991814462
 20
288.2448840381992
 30
0.0
 40
2.5
  1
1
  7
FusionTitle
 72
     4
 11
40.0
 21
289.5
 31
0.0
100
AcDbText
  0
TEXT
  5
394
330
36C
100
AcDbEntity
  8
BORDER
100
AcDbText
 10
16.33526603001364
 20
266.83333
 30
0.0
 40
2.5
  1
A
  7
FusionTitle
 72
     4
 11
17.5
 21
268.08333
 31
0.0
100
AcDbText
  0
TEXT
  5
395
330
36C
100
AcDbEntity
  8
BORDER
100
AcDbText
 10
89.0288199181446
 20
288.2448840381992
 30
0.0
 40
2.5
  1
2
  7
FusionTitle
 72
     4
 11
90.0
 21
289.5
 31
0.0
100
AcDbText
  0
TEXT
  5
396
330
36C
100
AcDbEntity
  8
BORDER
100
AcDbText
 10
139.0288199181446
 20
288.2670532060028
 30
0.0
 40
2.5
  1
3
  7
FusionTitle
 72
     4
 11
140.0
 21
289.5
 31
0.0
100
AcDbText
  0
TEXT
  5
397
330
36C
100
AcDbEntity
  8
BORDER
100
AcDbText
 10
189.0288199181446
 20
288.25
 30
0.0
 40
2.5
  1
4
  7
FusionTitle
 72
     4
 11
190.0
 21
289.5
 31
0.0
100
AcDbText
  0
TEXT
  5
398
330
36C
100
AcDbEntity
  8
BORDER
100
AcDbText
 10
239.0288199181446
 20
288.2883697135061
 30
0.0
 40
2.5
  1
5
  7
FusionTitle
 72
     4
 11
240.0
 21
289.5
 31
0.0
100
AcDbText
  0
TEXT
  5
399
330
36C
100
AcDbEntity
  8
BORDER
100
AcDbText
 10
289.0288199181446
 20
288.2662005457026
 30
0.0
 40
2.5
  1
6
  7
FusionTitle
 72
     4
 11
290.0
 21
289.5
 31
0.0
100
AcDbText
  0
TEXT
  5
39A
330
36C
100
AcDbEntity
  8
BORDER
100
AcDbText
 10
339.0288199181446
 20
288.2662005457026
 30
0.0
 40
2.5
  1
7
  7
FusionTitle
 72
     4
 11
340.0
 21
289.5
 31
0.0
100
AcDbText
  0
TEXT
  5
39B
330
36C
100
AcDbEntity
  8
BORDER
100
AcDbText
 10
389.0288199181446
 20
288.2662005457026
 30
0.0
 40
2.5
  1
8
  7
FusionTitle
 72
     4
 11
390.0
 21
289.5
 31
0.0
100
AcDbText
  0
TEXT
  5
39C
330
36C
100
AcDbEntity
  8
BORDER
100
AcDbText
 10
39.02881991814462
 20
6.244884038199181
 30
0.0
 40
2.5
  1
1
  7
FusionTitle
 72
     4
 11
40.0
 21
7.5
 31
0.0
100
AcDbText
  0
TEXT
  5
39D
330
36C
100
AcDbEntity
  8
BORDER
100
AcDbText
 10
89.0288199181446
 20
6.244884038199181
 30
0.0
 40
2.5
  1
2
  7
FusionTitle
 72
     4
 11
90.0
 21
7.5
 31
0.0
100
AcDbText
  0
TEXT
  5
39E
330
36C
100
AcDbEntity
  8
BORDER
100
AcDbText
 10
139.0288199181446
 20
6.267053206002728
 30
0.0
 40
2.5
  1
3
  7
FusionTitle
 72
     4
 11
140.0
 21
7.5
 31
0.0
100
AcDbText
  0
TEXT
  5
39F
330
36C
100
AcDbEntity
  8
BORDER
100
AcDbText
 10
189.0288199181446
 20
6.25
 30
0.0
 40
2.5
  1
4
  7
FusionTitle
 72
     4
 11
190.0
 21
7.5
 31
0.0
100
AcDbText
  0
TEXT
  5
3A0
330
36C
100
AcDbEntity
  8
BORDER
100
AcDbText
 10
239.0288199181446
 20
6.288369713506138
 30
0.0
 40
2.5
  1
5
  7
FusionTitle
 72
     4
 11
240.0
 21
7.5
 31
0.0
100
AcDbText
  0
TEXT
  5
3A1
330
36C
100
AcDbEntity
  8
BORDER
100
AcDbText
 10
289.0288199181446
 20
6.266200545702591
 30
0.0
 40
2.5
  1
6
  7
FusionTitle
 72
     4
 11
290.0
 21
7.5
 31
0.0
100
AcDbText
  0
TEXT
  5
3A2
330
36C
100
AcDbEntity
  8
BORDER
100
AcDbText
 10
339.0288199181446
 20
6.266200545702591
 30
0.0
 40
2.5
  1
7
  7
FusionTitle
 72
     4
 11
340.0
 21
7.5
 31
0.0
100
AcDbText
  0
TEXT
  5
3A3
330
36C
100
AcDbEntity
  8
BORDER
100
AcDbText
 10
389.0288199181446
 20
6.266200545702591
 30
0.0
 40
2.5
  1
8
  7
FusionTitle
 72
     4
 11
390.0
 21
7.5
 31
0.0
100
AcDbText
  0
TEXT
  5
3A4
330
36C
100
AcDbEntity
  8
BORDER
100
AcDbText
 10
16.33526603001364
 20
219.0
 30
0.0
 40
2.5
  1
B
  7
FusionTitle
 72
     4
 11
17.5
 21
220.25
 31
0.0
100
AcDbText
  0
TEXT
  5
3A5
330
36C
100
AcDbEntity
  8
BORDER
100
AcDbText
 10
16.23891541609823
 20
171.16667
 30
0.0
 40
2.5
  1
C
  7
FusionTitle
 72
     4
 11
17.5
 21
172.41667
 31
0.0
100
AcDbText
  0
TEXT
  5
3A6
330
36C
100
AcDbEntity
  8
BORDER
100
AcDbText
 10
16.23891541609823
 20
123.33334
 30
0.0
 40
2.5
  1
D
  7
FusionTitle
 72
     4
 11
17.5
 21
124.58334
 31
0.0
100
AcDbText
  0
TEXT
  5
3A7
330
36C
100
AcDbEntity
  8
BORDER
100
AcDbText
 10
16.33526603001364
 20
75.50001
 30
0.0
 40
2.5
  1
E
  7
FusionTitle
 72
     4
 11
17.5
 21
76.75001
 31
0.0
100
AcDbText
  0
TEXT
  5
3A8
330
36C
100
AcDbEntity
  8
BORDER
100
AcDbText
 10
16.43332196452933
 20
27.66668
 30
0.0
 40
2.5
  1
F
  7
FusionTitle
 72
     4
 11
17.5
 21
28.91668
 31
0.0
100
AcDbText
  0
TEXT
  5
3A9
330
36C
100
AcDbEntity
  8
BORDER
100
AcDbText
 10
411.3352660300136
 20
266.83333
 30
0.0
 40
2.5
  1
A
  7
FusionTitle
 72
     4
 11
412.5
 21
268.08333
 31
0.0
100
AcDbText
  0
TEXT
  5
3AA
330
36C
100
AcDbEntity
  8
BORDER
100
AcDbText
 10
411.3352660300136
 20
219.0
 30
0.0
 40
2.5
  1
B
  7
FusionTitle
 72
     4
 11
412.5
 21
220.25
 31
0.0
100
AcDbText
  0
TEXT
  5
3AB
330
36C
100
AcDbEntity
  8
BORDER
100
AcDbText
 10
411.2389154160982
 20
171.16667
 30
0.0
 40
2.5
  1
C
  7
FusionTitle
 72
     4
 11
412.5
 21
172.41667
 31
0.0
100
AcDbText
  0
TEXT
  5
3AC
330
36C
100
AcDbEntity
  8
BORDER
100
AcDbText
 10
411.2389154160982
 20
123.33334
 30
0.0
 40
2.5
  1
D
  7
FusionTitle
 72
     4
 11
412.5
 21
124.58334
 31
0.0
100
AcDbText
  0
TEXT
  5
3AD
330
36C
100
AcDbEntity
  8
BORDER
100
AcDbText
 10
411.3352660300136
 20
75.50001
 30
0.0
 40
2.5
  1
E
  7
FusionTitle
 72
     4
 11
412.5
 21
76.75001
 31
0.0
100
AcDbText
  0
TEXT
  5
3AE
330
36C
100
AcDbEntity
  8
BORDER
100
AcDbText
 10
411.4333219645293
 20
27.66668
 30
0.0
 40
2.5
  1
F
  7
FusionTitle
 72
     4
 11
412.5
 21
28.91668
 31
0.0
100
AcDbText
  0
ENDBLK
  5
3AF
330
36C
100
AcDbEntity
  8
0
100
AcDbBlockEnd
  0
BLOCK
  5
3B5
330
3B2
100
AcDbEntity
  8
0
100
AcDbBlockBegin
  2
ISO_TITLEBLOCK
 70
     2
 10
0.0
 20
0.0
 30
0.0
  3
ISO_TITLEBLOCK
  1

  0
LINE
  5
3B6
330
3B2
100
AcDbEntity
  8
TITLEBLOCK
100
AcDbLine
 10
-180.0
 20
0.0
 30
0.0
 11
0.0
 21
0.0
 31
0.0
  0
LINE
  5
3B7
330
3B2
100
AcDbEntity
  8
TITLEBLOCK
100
AcDbLine
 10
-61.0
 20
10.0
 30
0.0
 11
0.0
 21
10.0
 31
0.0
  0
LINE
  5
3B8
330
3B2
100
AcDbEntity
  8
TITLEBLOCK
100
AcDbLine
 10
-122.0
 20
27.0
 30
0.0
 11
0.0
 21
27.0
 31
0.0
  0
LINE
  5
3B9
330
3B2
100
AcDbEntity
  8
TITLEBLOCK
100
AcDbLine
 10
-180.0
 20
37.0
 30
0.0
 11
0.0
 21
37.0
 31
0.0
  0
LINE
  5
3BA
330
3B2
100
AcDbEntity
  8
TITLEBLOCK
100
AcDbLine
 10
0.0
 20
0.0
 30
0.0
 11
0.0
 21
47.0
 31
0.0
  0
LINE
  5
3BB
330
3B2
100
AcDbEntity
  8
TITLEBLOCK
100
AcDbLine
 10
-15.0
 20
0.0
 30
0.0
 11
-15.0
 21
10.0
 31
0.0
  0
LINE
  5
3BC
330
3B2
100
AcDbEntity
  8
TITLEBLOCK
100
AcDbLine
 10
-51.0
 20
0.0
 30
0.0
 11
-51.0
 21
10.0
 31
0.0
  0
LINE
  5
3BD
330
3B2
100
AcDbEntity
  8
TITLEBLOCK
100
AcDbLine
 10
-61.0
 20
0.0
 30
0.0
 11
-61.0
 21
47.0
 31
0.0
  0
LINE
  5
3BE
330
3B2
100
AcDbEntity
  8
TITLEBLOCK
100
AcDbLine
 10
-122.0
 20
0.0
 30
0.0
 11
-122.0
 21
47.0
 31
0.0
  0
LINE
  5
3BF
330
3B2
100
AcDbEntity
  8
TITLEBLOCK
100
AcDbLine
 10
-156.0
 20
37.0
 30
0.0
 11
-156.0
 21
47.0
 31
0.0
  0
LINE
  5
3C0
330
3B2
100
AcDbEntity
  8
TITLEBLOCK
100
AcDbLine
 10
0.0
 20
47.0
 30
0.0
 11
-180.0
 21
47.0
 31
0.0
  0
LINE
  5
3C1
330
3B2
100
AcDbEntity
  8
TITLEBLOCK
100
AcDbLine
 10
-180.0
 20
47.0
 30
0.0
 11
-180.0
 21
0.0
 31
0.0
  0
TEXT
  5
3C2
330
3B2
100
AcDbEntity
  8
TITLEBLOCK
100
AcDbText
 10
-179.0
 20
44.2
 30
0.0
 40
1.8
  1
Dept.
  7
FusionTitle
 11
-179.0
 21
46.0
 31
0.0
100
AcDbText
 73
     3
  0
TEXT
  5
3C3
330
3B2
100
AcDbEntity
  8
TITLEBLOCK
100
AcDbText
 10
-155.0
 20
44.2
 30
0.0
 40
1.8
  1
Technical reference
  7
FusionTitle
 11
-155.0
 21
46.0
 31
0.0
100
AcDbText
 73
     3
  0
TEXT
  5
3C4
330
3B2
100
AcDbEntity
  8
TITLEBLOCK
100
AcDbText
 10
-121.0
 20
44.2
 30
0.0
 40
1.8
  1
Created by
  7
FusionTitle
 11
-121.0
 21
46.0
 31
0.0
100
AcDbText
 73
     3
  0
TEXT
  5
3C5
330
3B2
100
AcDbEntity
  8
TITLEBLOCK
100
AcDbText
 10
-60.0
 20
44.2
 30
0.0
 40
1.8
  1
Approved by
  7
FusionTitle
 11
-60.0
 21
46.0
 31
0.0
100
AcDbText
 73
     3
  0
TEXT
  5
3C6
330
3B2
100
AcDbEntity
  8
TITLEBLOCK
100
AcDbText
 10
-121.0
 20
34.2
 30
0.0
 40
1.8
  1
Document type
  7
FusionTitle
 11
-121.0
 21
36.0
 31
0.0
100
AcDbText
 73
     3
  0
TEXT
  5
3C7
330
3B2
100
AcDbEntity
  8
TITLEBLOCK
100
AcDbText
 10
-60.0
 20
34.2
 30
0.0
 40
1.8
  1
Document status
  7
FusionTitle
 11
-60.0
 21
36.0
 31
0.0
100
AcDbText
 73
     3
  0
TEXT
  5
3C8
330
3B2
100
AcDbEntity
  8
TITLEBLOCK
100
AcDbText
 10
-121.0
 20
24.2
 30
0.0
 40
1.8
  1
Title
  7
FusionTitle
 11
-121.0
 21
26.0
 31
0.0
100
AcDbText
 73
     3
  0
TEXT
  5
3C9
330
3B2
100
AcDbEntity
  8
TITLEBLOCK
100
AcDbText
 10
-60.0
 20
24.2
 30
0.0
 40
1.8
  1
DWG No.
  7
FusionTitle
 11
-60.0
 21
26.0
 31
0.0
100
AcDbText
 73
     3
  0
TEXT
  5
3CA
330
3B2
100
AcDbEntity
  8
TITLEBLOCK
100
AcDbText
 10
-60.0
 20
7.2
 30
0.0
 40
1.8
  1
Rev.
  7
FusionTitle
 11
-60.0
 21
9.0
 31
0.0
100
AcDbText
 73
     3
  0
TEXT
  5
3CB
330
3B2
100
AcDbEntity
  8
TITLEBLOCK
100
AcDbText
 10
-50.0
 20
7.2
 30
0.0
 40
1.8
  1
Date of issue
  7
FusionTitle
 11
-50.0
 21
9.0
 31
0.0
100
AcDbText
 73
     3
  0
TEXT
  5
3CC
330
3B2
100
AcDbEntity
  8
TITLEBLOCK
100
AcDbText
 10
-14.0
 20
7.2
 30
0.0
 40
1.8
  1
Sheet
  7
FusionTitle
 11
-14.0
 21
9.0
 31
0.0
100
AcDbText
 73
     3
  0
ATTDEF
  5
3CD
102
{ACAD_XDICTIONARY
360
3CE
102
}
330
3B2
100
AcDbEntity
  8
TITLEBLOCK
100
AcDbText
 10
-50.0
 20
1.5
 30
0.0
 40
3.5
  1

  7
FusionTitle
 11
-50.0
 21
5.0
 31
0.0
100
AcDbAttributeDefinition
280
     0
  3
Date of issue
  2
DATE_OF_ISSUE
 70
     0
 74
     3
280
     1
  0
ATTDEF
  5
3CF
102
{ACAD_XDICTIONARY
360
3D0
102
}
330
3B2
100
AcDbEntity
  8
TITLEBLOCK
100
AcDbText
 10
-56.0
 20
1.349999999999999
 30
0.0
 40
3.5
  1

  7
FusionTitle
 72
     1
 11
-56.0
 21
4.849999999999999
 31
0.0
100
AcDbAttributeDefinition
280
     0
  3
Revision
  2
REV
 70
     0
 74
     3
280
     1
  0
ATTDEF
  5
3D1
102
{ACAD_XDICTIONARY
360
3D2
102
}
330
3B2
100
AcDbEntity
  8
TITLEBLOCK
100
AcDbText
 10
-121.0
 20
1.5
 30
0.0
 40
5.0
  1

  7
FusionTitle
 11
-121.0
 21
6.5
 31
0.0
100
AcDbAttributeDefinition
280
     0
  3
3rd Title
  2
TITLE_3
 70
     0
 74
     3
280
     1
  0
ATTDEF
  5
3D3
102
{ACAD_XDICTIONARY
360
3D4
102
}
330
3B2
100
AcDbEntity
  8
TITLEBLOCK
100
AcDbText
 10
-60.0
 20
28.5
 30
0.0
 40
3.5
  1

  7
FusionTitle
 11
-60.0
 21
32.0
 31
0.0
100
AcDbAttributeDefinition
280
     0
  3
Document status
  2
DOCUMENT_STATUS
 70
     0
 74
     3
280
     1
  0
ATTDEF
  5
3D5
102
{ACAD_XDICTIONARY
360
3D6
102
}
330
3B2
100
AcDbEntity
  8
TITLEBLOCK
100
AcDbText
 10
-121.0
 20
28.5
 30
0.0
 40
3.5
  1

  7
FusionTitle
 11
-121.0
 21
32.0
 31
0.0
100
AcDbAttributeDefinition
280
     0
  3
Document type
  2
DOCUMENT_TYPE
 70
     0
 74
     3
280
     1
  0
ATTDEF
  5
3D7
102
{ACAD_XDICTIONARY
360
3D8
102
}
330
3B2
100
AcDbEntity
  8
TITLEBLOCK
100
AcDbText
 10
-0.992838
 20
38.5
 30
0.0
 40
3.5
  1

  7
FusionTitle
 72
     2
 11
-0.9928379999999998
 21
42.0
 31
0.0
100
AcDbAttributeDefinition
280
     0
  3
Approved date
  2
APPROVED_DATE
 70
     0
 74
     3
280
     1
  0
ATTDEF
  5
3D9
102
{ACAD_XDICTIONARY
360
3DA
102
}
330
3B2
100
AcDbEntity
  8
TITLEBLOCK
100
AcDbText
 10
-62.0
 20
38.5
 30
0.0
 40
3.5
  1

  7
FusionTitle
 72
     2
 11
-62.0
 21
42.0
 31
0.0
100
AcDbAttributeDefinition
280
     0
  3
Created date
  2
CREATED_DATE
 70
     0
 74
     3
280
     1
  0
ATTDEF
  5
3DB
102
{ACAD_XDICTIONARY
360
3DC
102
}
330
3B2
100
AcDbEntity
  8
TITLEBLOCK
100
AcDbText
 10
-7.5
 20
1.349999999999999
 30
0.0
 40
3.5
  1

  7
FusionTitle
 72
     1
 11
-7.5
 21
4.849999999999999
 31
0.0
100
AcDbAttributeDefinition
280
     0
  3
Sheet
  2
SHEET
 70
     0
 74
     3
280
     1
  0
ATTDEF
  5
3DD
102
{ACAD_XDICTIONARY
360
3DE
102
}
330
3B2
100
AcDbEntity
  8
TITLEBLOCK
100
AcDbText
 10
-121.0
 20
9.0
 30
0.0
 40
5.0
  1

  7
FusionTitle
 11
-121.0
 21
14.0
 31
0.0
100
AcDbAttributeDefinition
280
     0
  3
2nd Title
  2
TITLE_2
 70
     0
 74
     3
280
     1
  0
ATTDEF
  5
3DF
102
{ACAD_XDICTIONARY
360
3E0
102
}
330
3B2
100
AcDbEntity
  8
TITLEBLOCK
100
AcDbText
 10
-30.5
 20
14.751432
 30
0.0
 40
5.0
  1

  7
FusionTitle
 72
     1
 11
-30.5
 21
19.751432
 31
0.0
100
AcDbAttributeDefinition
280
     0
  3
Drawing number
  2
DRAWING_NUMBER
 70
     0
 74
     3
280
     1
  0
ATTDEF
  5
3E1
102
{ACAD_XDICTIONARY
360
3E2
102
}
330
3B2
100
AcDbEntity
  8
TITLEBLOCK
100
AcDbText
 10
-121.0
 20
16.5
 30
0.0
 40
5.0
  1

  7
FusionTitle
 11
-121.0
 21
21.5
 31
0.0
100
AcDbAttributeDefinition
280
     0
  3
1st Title
  2
TITLE_1
 70
     0
 74
     3
280
     1
  0
ATTDEF
  5
3E3
102
{ACAD_XDICTIONARY
360
3E4
102
}
330
3B2
100
AcDbEntity
  8
TITLEBLOCK
100
AcDbText
 10
-60.0
 20
38.5
 30
0.0
 40
3.5
  1

  7
FusionTitle
 11
-60.0
 21
42.0
 31
0.0
100
AcDbAttributeDefinition
280
     0
  3
Approved by
  2
APPROVED_BY
 70
     0
 74
     3
280
     1
  0
ATTDEF
  5
3E5
102
{ACAD_XDICTIONARY
360
3E6
102
}
330
3B2
100
AcDbEntity
  8
TITLEBLOCK
100
AcDbText
 10
-121.0
 20
38.5
 30
0.0
 40
3.5
  1

  7
FusionTitle
 11
-121.0
 21
42.0
 31
0.0
100
AcDbAttributeDefinition
280
     0
  3
Created by
  2
CREATED_BY
 70
     0
 74
     3
280
     1
  0
ATTDEF
  5
3E7
102
{ACAD_XDICTIONARY
360
3E8
102
}
330
3B2
100
AcDbEntity
  8
TITLEBLOCK
100
AcDbText
 10
-155.0
 20
38.5
 30
0.0
 40
3.5
  1

  7
FusionTitle
 11
-155.0
 21
42.0
 31
0.0
100
AcDbAttributeDefinition
280
     0
  3
Technical reference
  2
TECHNICAL_REFERENCE
 70
     0
 74
     3
280
     1
  0
ATTDEF
  5
3E9
102
{ACAD_XDICTIONARY
360
3EA
102
}
330
3B2
100
AcDbEntity
  8
TITLEBLOCK
100
AcDbText
 10
-179.0
 20
38.5
 30
0.0
 40
3.5
  1

  7
FusionTitle
 11
-179.0
 21
42.0
 31
0.0
100
AcDbAttributeDefinition
280
     0
  3
Department
  2
DEPT
 70
     0
 74
     3
280
     1
  0
ENDBLK
  5
3EB
330
3B2
100
AcDbEntity
  8
0
100
AcDbBlockEnd
  0
BLOCK
  5
40B
330
40A
100
AcDbEntity
  8
0
100
AcDbBlockBegin
  2
*D3
 70
     1
 10
0.0
 20
0.0
 30
0.0
  3
*D3
  1

  0
LINE
  5
40C
330
40A
100
AcDbEntity
  8
FD_Dimensions
 62
     0
440
 16777216
370
    -2
100
AcDbLine
 10
333.424301
 20
186.746183
 30
0.0
 11
333.424301
 21
202.83728
 31
0.0
  0
LINE
  5
40D
330
40A
100
AcDbEntity
  8
FD_Dimensions
 62
     0
440
 16777216
370
    -2
100
AcDbLine
 10
53.424301
 20
186.746183
 30
0.0
 11
53.424301
 21
202.83728
 31
0.0
  0
LINE
  5
40E
330
40A
100
AcDbEntity
  8
FD_Dimensions
 62
     0
440
 16777216
370
    -2
100
AcDbLine
 10
329.924301
 20
200.73728
 30
0.0
 11
56.924301
 21
200.73728
 31
0.0
  0
SOLID
  5
40F
330
40A
100
AcDbEntity
  8
FD_Dimensions
 62
     0
440
 16777216
100
AcDbTrace
 10
329.924301
 20
201.320614
 30
0.0
 11
329.924301
 21
200.153947
 31
0.0
 12
333.424301
 22
200.73728
 32
0.0
 13
333.424301
 23
200.73728
 33
0.0
  0
SOLID
  5
410
330
40A
100
AcDbEntity
  8
FD_Dimensions
 62
     0
440
 16777216
100
AcDbTrace
 10
56.924301
 20
201.320614
 30
0.0
 11
56.924301
 21
200.153947
 31
0.0
 12
53.424301
 22
200.73728
 32
0.0
 13
53.424301
 23
200.73728
 33
0.0
  0
MTEXT
  5
411
330
40A
100
AcDbEntity
  8
FD_Dimensions
 62
     0
440
 16777216
100
AcDbMText
 10
193.424301
 20
203.924286
 30
0.0
 40
3.5
 41
0.0
 46
0.0
 71
     5
 72
     1
  1
700
 73
     1
 44
1.0
  0
POINT
  5
412
330
40A
100
AcDbEntity
  8
Defpoints
 62
     0
440
 16777216
100
AcDbPoint
 10
333.424301
 20
184.646183
 30
0.0
  0
POINT
  5
413
330
40A
100
AcDbEntity
  8
Defpoints
 62
     0
440
 16777216
100
AcDbPoint
 10
53.424301
 20
184.646183
 30
0.0
  0
POINT
  5
414
330
40A
100
AcDbEntity
  8
Defpoints
 62
     0
440
 16777216
100
AcDbPoint
 10
53.424301
 20
200.73728
 30
0.0
  0
ENDBLK
  5
415
330
40A
100
AcDbEntity
  8
0
100
AcDbBlockEnd
  0
BLOCK
  5
418
330
417
100
AcDbEntity
  8
0
100
AcDbBlockBegin
  2
*D4
 70
     1
 10
0.0
 20
0.0
 30
0.0
  3
*D4
  1

  0
LINE
  5
419
330
417
100
AcDbEntity
  8
FD_Dimensions
 62
     0
440
 16777216
370
    -2
100
AcDbLine
 10
199.424301
 20
130.953302
 30
0.0
 11
199.424301
 21
118.063661
 31
0.0
  0
LINE
  5
41A
330
417
100
AcDbEntity
  8
FD_Dimensions
 62
     0
440
 16777216
370
    -2
100
AcDbLine
 10
187.424301
 20
130.836302
 30
0.0
 11
187.424301
 21
118.063661
 31
0.0
  0
LINE
  5
41B
330
417
100
AcDbEntity
  8
FD_Dimensions
 62
     0
440
 16777216
370
    -2
100
AcDbLine
 10
195.924301
 20
120.163661
 30
0.0
 11
190.924301
 21
120.163661
 31
0.0
  0
SOLID
  5
41C
330
417
100
AcDbEntity
  8
FD_Dimensions
 62
     0
440
 16777216
100
AcDbTrace
 10
195.924301
 20
120.746994
 30
0.0
 11
195.924301
 21
119.580328
 31
0.0
 12
199.424301
 22
120.163661
 32
0.0
 13
199.424301
 23
120.163661
 33
0.0
  0
SOLID
  5
41D
330
417
100
AcDbEntity
  8
FD_Dimensions
 62
     0
440
 16777216
100
AcDbTrace
 10
190.924301
 20
120.746994
 30
0.0
 11
190.924301
 21
119.580328
 31
0.0
 12
187.424301
 22
120.163661
 32
0.0
 13
187.424301
 23
120.163661
 33
0.0
  0
MTEXT
  5
41E
330
417
100
AcDbEntity
  8
FD_Dimensions
 62
     0
440
 16777216
100
AcDbMText
 10
193.424301
 20
123.35186
 30
0.0
 40
3.5
 41
0.0
 46
0.0
 71
     5
 72
     1
  1
30
 73
     1
 44
1.0
  0
POINT
  5
41F
330
417
100
AcDbEntity
  8
Defpoints
 62
     0
440
 16777216
100
AcDbPoint
 10
199.424301
 20
133.053302
 30
0.0
  0
POINT
  5
420
330
417
100
AcDbEntity
  8
Defpoints
 62
     0
440
 16777216
100
AcDbPoint
 10
187.424301
 20
132.936302
 30
0.0
  0
POINT
  5
421
330
417
100
AcDbEntity
  8
Defpoints
 62
     0
440
 16777216
100
AcDbPoint
 10
187.424301
 20
120.163661
 30
0.0
  0
ENDBLK
  5
422
330
417
100
AcDbEntity
  8
0
100
AcDbBlockEnd
  0
BLOCK
  5
425
330
424
100
AcDbEntity
  8
0
100
AcDbBlockBegin
  2
*D5
 70
     1
 10
0.0
 20
0.0
 30
0.0
  3
*D5
  1

  0
LINE
  5
426
330
424
100
AcDbEntity
  8
FD_Dimensions
 62
     0
440
 16777216
370
    -2
100
AcDbLine
 10
186.524301
 20
138.937333
 30
0.0
 11
176.024301
 21
138.937333
 31
0.0
  0
LINE
  5
427
330
424
100
AcDbEntity
  8
FD_Dimensions
 62
     0
440
 16777216
370
    -2
100
AcDbLine
 10
185.324301
 20
132.936302
 30
0.0
 11
176.024301
 21
132.936302
 31
0.0
  0
LINE
  5
428
330
424
100
AcDbEntity
  8
FD_Dimensions
 62
     0
440
 16777216
370
    -2
100
AcDbLine
 10
178.124301
 20
142.437333
 30
0.0
 11
178.124301
 21
145.937333
 31
0.0
  0
LINE
  5
429
330
424
100
AcDbEntity
  8
FD_Dimensions
 62
     0
440
 16777216
370
    -2
100
AcDbLine
 10
178.124301
 20
129.436302
 30
0.0
 11
178.124301
 21
118.425865
 31
0.0
  0
LINE
  5
42A
330
424
100
AcDbEntity
  8
FD_Dimensions
 62
     0
440
 16777216
370
    -2
100
AcDbLine
 10
178.124301
 20
138.937333
 30
0.0
 11
178.124301
 21
132.936302
 31
0.0
  0
SOLID
  5
42B
330
424
100
AcDbEntity
  8
FD_Dimensions
 62
     0
440
 16777216
100
AcDbTrace
 10
177.540967
 20
142.437333
 30
0.0
 11
178.707634
 21
142.437333
 31
0.0
 12
178.124301
 22
138.937333
 32
0.0
 13
178.124301
 23
138.937333
 33
0.0
  0
SOLID
  5
42C
330
424
100
AcDbEntity
  8
FD_Dimensions
 62
     0
440
 16777216
100
AcDbTrace
 10
177.540967
 20
129.436302
 30
0.0
 11
178.707634
 21
129.436302
 31
0.0
 12
178.124301
 22
132.936302
 32
0.0
 13
178.124301
 23
132.936302
 33
0.0
  0
MTEXT
  5
42D
330
424
100
AcDbEntity
  8
FD_Dimensions
 62
     0
440
 16777216
100
AcDbMText
 10
174.937295
 20
122.181084
 30
0.0
 40
3.5
 41
0.0
 46
0.0
 71
     5
 72
     1
  1
15
 11
0.0
 21
1.0
 31
0.0
 73
     1
 44
1.0
  0
POINT
  5
42E
330
424
100
AcDbEntity
  8
Defpoints
 62
     0
440
 16777216
100
AcDbPoint
 10
188.624301
 20
138.937333
 30
0.0
  0
POINT
  5
42F
330
424
100
AcDbEntity
  8
Defpoints
 62
     0
440
 16777216
100
AcDbPoint
 10
187.424301
 20
132.936302
 30
0.0
  0
POINT
  5
430
330
424
100
AcDbEntity
  8
Defpoints
 62
     0
440
 16777216
100
AcDbPoint
 10
178.124301
 20
132.936302
 30
0.0
  0
ENDBLK
  5
431
330
424
100
AcDbEntity
  8
0
100
AcDbBlockEnd
  0
BLOCK
  5
43D
330
43C
100
AcDbEntity
  8
0
100
AcDbBlockBegin
  2
*D6
 70
     1
 10
0.0
 20
0.0
 30
0.0
  3
*D6
  1

  0
LINE
  5
43E
330
43C
100
AcDbEntity
  8
FD_Dimensions
 62
     0
440
 16777216
370
    -2
100
AcDbLine
 10
360.086205
 20
257.473362
 30
0.0
 11
360.086205
 21
267.973362
 31
0.0
  0
LINE
  5
43F
330
43C
100
AcDbEntity
  8
FD_Dimensions
 62
     0
440
 16777216
370
    -2
100
AcDbLine
 10
386.486205
 20
257.473362
 30
0.0
 11
386.486205
 21
267.973362
 31
0.0
  0
LINE
  5
440
330
43C
100
AcDbEntity
  8
FD_Dimensions
 62
     0
440
 16777216
370
    -2
100
AcDbLine
 10
363.586205
 20
265.873362
 30
0.0
 11
382.986205
 21
265.873362
 31
0.0
  0
SOLID
  5
441
330
43C
100
AcDbEntity
  8
FD_Dimensions
 62
     0
440
 16777216
100
AcDbTrace
 10
363.586205
 20
266.456696
 30
0.0
 11
363.586205
 21
265.290029
 31
0.0
 12
360.086205
 22
265.873362
 32
0.0
 13
360.086205
 23
265.873362
 33
0.0
  0
SOLID
  5
442
330
43C
100
AcDbEntity
  8
FD_Dimensions
 62
     0
440
 16777216
100
AcDbTrace
 10
382.986205
 20
266.456696
 30
0.0
 11
382.986205
 21
265.290029
 31
0.0
 12
386.486205
 22
265.873362
 32
0.0
 13
386.486205
 23
265.873362
 33
0.0
  0
MTEXT
  5
443
330
43C
100
AcDbEntity
  8
FD_Dimensions
 62
     0
440
 16777216
100
AcDbMText
 10
373.286205
 20
269.0603680000001
 30
0.0
 40
3.5
 41
0.0
 46
0.0
 71
     5
 72
     1
  1
17.6
 73
     1
 44
1.0
  0
POINT
  5
444
330
43C
100
AcDbEntity
  8
Defpoints
 62
     0
440
 16777216
100
AcDbPoint
 10
360.086205
 20
255.373362
 30
0.0
  0
POINT
  5
445
330
43C
100
AcDbEntity
  8
Defpoints
 62
     0
440
 16777216
100
AcDbPoint
 10
386.486205
 20
255.373362
 30
0.0
  0
POINT
  5
446
330
43C
100
AcDbEntity
  8
Defpoints
 62
     0
440
 16777216
100
AcDbPoint
 10
386.486205
 20
265.873362
 30
0.0
  0
ENDBLK
  5
447
330
43C
100
AcDbEntity
  8
0
100
AcDbBlockEnd
  0
BLOCK
  5
44A
330
449
100
AcDbEntity
  8
0
100
AcDbBlockBegin
  2
*D7
 70
     1
 10
0.0
 20
0.0
 30
0.0
  3
*D7
  1

  0
LINE
  5
44B
330
449
100
AcDbEntity
  8
FD_Dimensions
 62
     0
440
 16777216
370
    -2
100
AcDbLine
 10
388.286205
 20
235.123362
 30
0.0
 11
399.515061
 21
235.123362
 31
0.0
  0
LINE
  5
44C
330
449
100
AcDbEntity
  8
FD_Dimensions
 62
     0
440
 16777216
370
    -2
100
AcDbLine
 10
388.286205
 20
209.77783
 30
0.0
 11
399.515061
 21
209.77783
 31
0.0
  0
LINE
  5
44D
330
449
100
AcDbEntity
  8
FD_Dimensions
 62
     0
440
 16777216
370
    -2
100
AcDbLine
 10
397.415061
 20
231.623362
 30
0.0
 11
397.415061
 21
213.27783
 31
0.0
  0
SOLID
  5
44E
330
449
100
AcDbEntity
  8
FD_Dimensions
 62
     0
440
 16777216
100
AcDbTrace
 10
396.831727
 20
231.623362
 30
0.0
 11
397.998394
 21
231.623362
 31
0.0
 12
397.415061
 22
235.123362
 32
0.0
 13
397.415061
 23
235.123362
 33
0.0
  0
SOLID
  5
44F
330
449
100
AcDbEntity
  8
FD_Dimensions
 62
     0
440
 16777216
100
AcDbTrace
 10
396.831727
 20
213.27783
 30
0.0
 11
397.998394
 21
213.27783
 31
0.0
 12
397.415061
 22
209.77783
 32
0.0
 13
397.415061
 23
209.77783
 33
0.0
  0
MTEXT
  5
450
330
449
100
AcDbEntity
  8
FD_Dimensions
 62
     0
440
 16777216
100
AcDbMText
 10
394.228055
 20
222.450596
 30
0.0
 40
3.5
 41
0.0
 46
0.0
 71
     5
 72
     1
  1
16.9
 11
0.0
 21
1.0
 31
0.0
 73
     1
 44
1.0
  0
POINT
  5
451
330
449
100
AcDbEntity
  8
Defpoints
 62
     0
440
 16777216
100
AcDbPoint
 10
386.186205
 20
235.123362
 30
0.0
  0
POINT
  5
452
330
449
100
AcDbEntity
  8
Defpoints
 62
     0
440
 16777216
100
AcDbPoint
 10
386.186205
 20
209.77783
 30
0.0
  0
POINT
  5
453
330
449
100
AcDbEntity
  8
Defpoints
 62
     0
440
 16777216
100
AcDbPoint
 10
397.415061
 20
209.77783
 30
0.0
  0
ENDBLK
  5
454
330
449
100
AcDbEntity
  8
0
100
AcDbBlockEnd
  0
BLOCK
  5
457
330
456
100
AcDbEntity
  8
0
100
AcDbBlockBegin
  2
*D8
 70
     1
 10
0.0
 20
0.0
 30
0.0
  3
*D8
  1

  0
LINE
  5
458
330
456
100
AcDbEntity
  8
FD_Dimensions
 62
     0
440
 16777216
370
    -2
100
AcDbLine
 10
386.486205
 20
235.123362
 30
0.0
 11
407.8893919999999
 21
235.123362
 31
0.0
  0
LINE
  5
459
330
456
100
AcDbEntity
  8
FD_Dimensions
 62
     0
440
 16777216
370
    -2
100
AcDbLine
 10
388.52242
 20
207.37783
 30
0.0
 11
407.8893919999999
 21
207.37783
 31
0.0
  0
LINE
  5
45A
330
456
100
AcDbEntity
  8
FD_Dimensions
 62
     0
440
 16777216
370
    -2
100
AcDbLine
 10
405.789392
 20
231.623362
 30
0.0
 11
405.789392
 21
210.87783
 31
0.0
  0
SOLID
  5
45B
330
456
100
AcDbEntity
  8
FD_Dimensions
 62
     0
440
 16777216
100
AcDbTrace
 10
405.2060589999999
 20
231.623362
 30
0.0
 11
406.372725
 21
231.623362
 31
0.0
 12
405.789392
 22
235.123362
 32
0.0
 13
405.789392
 23
235.123362
 33
0.0
  0
SOLID
  5
45C
330
456
100
AcDbEntity
  8
FD_Dimensions
 62
     0
440
 16777216
100
AcDbTrace
 10
405.2060589999999
 20
210.87783
 30
0.0
 11
406.372725
 21
210.87783
 31
0.0
 12
405.789392
 22
207.37783
 32
0.0
 13
405.789392
 23
207.37783
 33
0.0
  0
MTEXT
  5
45D
330
456
100
AcDbEntity
  8
FD_Dimensions
 62
     0
440
 16777216
100
AcDbMText
 10
402.6023859999999
 20
221.250596
 30
0.0
 40
3.5
 41
0.0
 46
0.0
 71
     5
 72
     1
  1
18.5
 11
0.0
 21
1.0
 31
0.0
 73
     1
 44
1.0
  0
POINT
  5
45E
330
456
100
AcDbEntity
  8
Defpoints
 62
     0
440
 16777216
100
AcDbPoint
 10
384.386205
 20
235.123362
 30
0.0
  0
POINT
  5
45F
330
456
100
AcDbEntity
  8
Defpoints
 62
     0
440
 16777216
100
AcDbPoint
 10
386.4224200000001
 20
207.37783
 30
0.0
  0
POINT
  5
460
330
456
100
AcDbEntity
  8
Defpoints
 62
     0
440
 16777216
100
AcDbPoint
 10
405.789392
 20
207.37783
 30
0.0
  0
ENDBLK
  5
461
330
456
100
AcDbEntity
  8
0
100
AcDbBlockEnd
  0
BLOCK
  5
464
330
463
100
AcDbEntity
  8
0
100
AcDbBlockBegin
  2
*D9
 70
     1
 10
0.0
 20
0.0
 30
0.0
  3
*D9
  1

  0
LINE
  5
465
330
463
100
AcDbEntity
  8
FD_Dimensions
 62
     0
440
 16777216
370
    -2
100
AcDbLine
 10
359.70572
 20
205.716581
 30
0.0
 11
359.70572
 21
195.216581
 31
0.0
  0
LINE
  5
466
330
463
100
AcDbEntity
  8
FD_Dimensions
 62
     0
440
 16777216
370
    -2
100
AcDbLine
 10
386.866689
 20
205.716581
 30
0.0
 11
386.866689
 21
195.216581
 31
0.0
  0
LINE
  5
467
330
463
100
AcDbEntity
  8
FD_Dimensions
 62
     0
440
 16777216
370
    -2
100
AcDbLine
 10
363.2057200000001
 20
197.316581
 30
0.0
 11
383.366689
 21
197.316581
 31
0.0
  0
SOLID
  5
468
330
463
100
AcDbEntity
  8
FD_Dimensions
 62
     0
440
 16777216
100
AcDbTrace
 10
363.2057200000001
 20
197.899914
 30
0.0
 11
363.2057200000001
 21
196.733247
 31
0.0
 12
359.70572
 22
197.316581
 32
0.0
 13
359.70572
 23
197.316581
 33
0.0
  0
SOLID
  5
469
330
463
100
AcDbEntity
  8
FD_Dimensions
 62
     0
440
 16777216
100
AcDbTrace
 10
383.366689
 20
197.899914
 30
0.0
 11
383.366689
 21
196.733247
 31
0.0
 12
386.866689
 22
197.316581
 32
0.0
 13
386.866689
 23
197.316581
 33
0.0
  0
MTEXT
  5
46A
330
463
100
AcDbEntity
  8
FD_Dimensions
 62
     0
440
 16777216
100
AcDbMText
 10
373.286205
 20
200.503586
 30
0.0
 40
3.5
 41
0.0
 46
0.0
 71
     5
 72
     1
  1
18.11
 73
     1
 44
1.0
  0
POINT
  5
46B
330
463
100
AcDbEntity
  8
Defpoints
 62
     0
440
 16777216
100
AcDbPoint
 10
359.70572
 20
207.816581
 30
0.0
  0
POINT
  5
46C
330
463
100
AcDbEntity
  8
Defpoints
 62
     0
440
 16777216
100
AcDbPoint
 10
386.866689
 20
207.816581
 30
0.0
  0
POINT
  5
46D
330
463
100
AcDbEntity
  8
Defpoints
 62
     0
440
 16777216
100
AcDbPoint
 10
386.866689
 20
197.316581
 30
0.0
  0
ENDBLK
  5
46E
330
463
100
AcDbEntity
  8
0
100
AcDbBlockEnd
  0
BLOCK
  5
471
330
470
100
AcDbEntity
  8
0
100
AcDbBlockBegin
  2
*D10
 70
     1
 10
0.0
 20
0.0
 30
0.0
  3
*D10
  1

  0
LINE
  5
472
330
470
100
AcDbEntity
  8
FD_Dimensions
 62
     0
440
 16777216
370
    -2
100
AcDbLine
 10
387.836205
 20
256.123362
 30
0.0
 11
401.5629719999999
 21
256.123362
 31
0.0
  0
LINE
  5
473
330
470
100
AcDbEntity
  8
FD_Dimensions
 62
     0
440
 16777216
370
    -2
100
AcDbLine
 10
388.286205
 20
250.123362
 30
0.0
 11
401.5629719999999
 21
250.123362
 31
0.0
  0
LINE
  5
474
330
470
100
AcDbEntity
  8
FD_Dimensions
 62
     0
440
 16777216
370
    -2
100
AcDbLine
 10
399.462972
 20
259.623362
 30
0.0
 11
399.462972
 21
263.123362
 31
0.0
  0
LINE
  5
475
330
470
100
AcDbEntity
  8
FD_Dimensions
 62
     0
440
 16777216
370
    -2
100
AcDbLine
 10
399.462972
 20
246.623362
 30
0.0
 11
399.462972
 21
243.123362
 31
0.0
  0
LINE
  5
476
330
470
100
AcDbEntity
  8
FD_Dimensions
 62
     0
440
 16777216
370
    -2
100
AcDbLine
 10
399.462972
 20
256.123362
 30
0.0
 11
399.462972
 21
250.123362
 31
0.0
  0
SOLID
  5
477
330
470
100
AcDbEntity
  8
FD_Dimensions
 62
     0
440
 16777216
100
AcDbTrace
 10
398.879639
 20
259.623362
 30
0.0
 11
400.0463049999999
 21
259.623362
 31
0.0
 12
399.462972
 22
256.123362
 32
0.0
 13
399.462972
 23
256.123362
 33
0.0
  0
SOLID
  5
478
330
470
100
AcDbEntity
  8
FD_Dimensions
 62
     0
440
 16777216
100
AcDbTrace
 10
398.879639
 20
246.623362
 30
0.0
 11
400.0463049999999
 21
246.623362
 31
0.0
 12
399.462972
 22
250.123362
 32
0.0
 13
399.462972
 23
250.123362
 33
0.0
  0
MTEXT
  5
479
330
470
100
AcDbEntity
  8
FD_Dimensions
 62
     0
440
 16777216
100
AcDbMText
 10
396.312972
 20
253.123362
 30
0.0
 40
3.5
 41
0.0
 46
0.0
 71
     5
 72
     1
  1
4
 11
0.0
 21
1.0
 31
0.0
 73
     1
 44
1.0
  0
POINT
  5
47A
330
470
100
AcDbEntity
  8
Defpoints
 62
     0
440
 16777216
100
AcDbPoint
 10
385.736205
 20
256.123362
 30
0.0
  0
POINT
  5
47B
330
470
100
AcDbEntity
  8
Defpoints
 62
     0
440
 16777216
100
AcDbPoint
 10
386.186205
 20
250.123362
 30
0.0
  0
POINT
  5
47C
330
470
100
AcDbEntity
  8
Defpoints
 62
     0
440
 16777216
100
AcDbPoint
 10
399.462972
 20
250.123362
 30
0.0
  0
ENDBLK
  5
47D
330
470
100
AcDbEntity
  8
0
100
AcDbBlockEnd
  0
BLOCK
  5
493
330
492
100
AcDbEntity
  8
0
100
AcDbBlockBegin
  2
*D11
 70
     1
 10
0.0
 20
0.0
 30
0.0
  3
*D11
  1

  0
LINE
  5
958
330
492
100
AcDbEntity
  8
FD_Dimensions
 62
     0
440
 16777216
370
    -2
100
AcDbLine
 10
753.4243009999999
 20
329.887454
 30
0.0
 11
753.4243009999999
 21
370.1151965
 31
0.0
  0
LINE
  5
959
330
492
100
AcDbEntity
  8
FD_Dimensions
 62
     0
440
 16777216
370
    -2
100
AcDbLine
 10
53.42430100000001
 20
329.887454
 30
0.0
 11
53.42430100000001
 21
370.1151965
 31
0.0
  0
LINE
  5
95A
330
492
100
AcDbEntity
  8
FD_Dimensions
 62
     0
440
 16777216
370
    -2
100
AcDbLine
 10
749.9243009999998
 20
368.0151965
 30
0.0
 11
56.92430100000001
 21
368.0151965
 31
0.0
  0
SOLID
  5
95B
330
492
100
AcDbEntity
  8
FD_Dimensions
 62
     0
440
 16777216
100
AcDbTrace
 10
749.9243009999998
 20
368.5985298333333
 30
0.0
 11
749.9243009999998
 21
367.4318631666667
 31
0.0
 12
753.4243009999999
 22
368.0151965
 32
0.0
 13
753.4243009999999
 23
368.0151965
 33
0.0
  0
SOLID
  5
95C
330
492
100
AcDbEntity
  8
FD_Dimensions
 62
     0
440
 16777216
100
AcDbTrace
 10
56.92430100000001
 20
368.5985298333333
 30
0.0
 11
56.92430100000001
 21
367.4318631666667
 31
0.0
 12
53.42430100000001
 22
368.0151965
 32
0.0
 13
53.42430100000001
 23
368.0151965
 33
0.0
  0
MTEXT
  5
95D
330
492
100
AcDbEntity
  8
FD_Dimensions
 62
     0
440
 16777216
100
AcDbMText
 10
403.4243009999999
 20
371.2022019570259
 30
0.0
 40
3.5
 41
0.0
 46
0.0
 71
     5
 72
     1
  1
1750
 73
     1
 44
1.0
  0
POINT
  5
95E
330
492
100
AcDbEntity
  8
Defpoints
 62
     0
440
 16777216
100
AcDbPoint
 10
753.4243009999999
 20
327.787454
 30
0.0
  0
POINT
  5
95F
330
492
100
AcDbEntity
  8
Defpoints
 62
     0
440
 16777216
100
AcDbPoint
 10
53.42430100000001
 20
327.787454
 30
0.0
  0
POINT
  5
960
330
492
100
AcDbEntity
  8
Defpoints
 62
     0
440
 16777216
100
AcDbPoint
 10
53.42430100000001
 20
368.0151965
 30
0.0
  0
ENDBLK
  5
494
330
492
100
AcDbEntity
  8
0
100
AcDbBlockEnd
  0
BLOCK
  5
49F
330
49E
100
AcDbEntity
  8
0
100
AcDbBlockBegin
  2
*D12
 70
     1
 10
0.0
 20
0.0
 30
0.0
  3
*D12
  1

  0
LINE
  5
961
330
49E
100
AcDbEntity
  8
FD_Dimensions
 62
     0
440
 16777216
370
    -2
100
AcDbLine
 10
418.424301
 20
196.7052515
 30
0.0
 11
418.424301
 21
164.481149
 31
0.0
  0
LINE
  5
962
330
49E
100
AcDbEntity
  8
FD_Dimensions
 62
     0
440
 16777216
370
    -2
100
AcDbLine
 10
388.424301
 20
196.4127515000001
 30
0.0
 11
388.424301
 21
164.481149
 31
0.0
  0
LINE
  5
963
330
49E
100
AcDbEntity
  8
FD_Dimensions
 62
     0
440
 16777216
370
    -2
100
AcDbLine
 10
414.924301
 20
166.581149
 30
0.0
 11
391.924301
 21
166.581149
 31
0.0
  0
SOLID
  5
964
330
49E
100
AcDbEntity
  8
FD_Dimensions
 62
     0
440
 16777216
100
AcDbTrace
 10
414.924301
 20
167.1644823333333
 30
0.0
 11
414.924301
 21
165.9978156666666
 31
0.0
 12
418.424301
 22
166.581149
 32
0.0
 13
418.424301
 23
166.581149
 33
0.0
  0
SOLID
  5
965
330
49E
100
AcDbEntity
  8
FD_Dimensions
 62
     0
440
 16777216
100
AcDbTrace
 10
391.924301
 20
167.1644823333333
 30
0.0
 11
391.924301
 21
165.9978156666666
 31
0.0
 12
388.424301
 22
166.581149
 32
0.0
 13
388.424301
 23
166.581149
 33
0.0
  0
MTEXT
  5
966
330
49E
100
AcDbEntity
  8
FD_Dimensions
 62
     0
440
 16777216
100
AcDbMText
 10
403.4243009999999
 20
169.7609921105048
 30
0.0
 40
3.5
 41
0.0
 46
0.0
 71
     5
 72
     1
  1
75
 73
     1
 44
1.0
  0
POINT
  5
967
330
49E
100
AcDbEntity
  8
Defpoints
 62
     0
440
 16777216
100
AcDbPoint
 10
418.424301
 20
198.8052515
 30
0.0
  0
POINT
  5
968
330
49E
100
AcDbEntity
  8
Defpoints
 62
     0
440
 16777216
100
AcDbPoint
 10
388.424301
 20
198.5127515
 30
0.0
  0
POINT
  5
969
330
49E
100
AcDbEntity
  8
Defpoints
 62
     0
440
 16777216
100
AcDbPoint
 10
388.424301
 20
166.581149
 30
0.0
  0
ENDBLK
  5
4A0
330
49E
100
AcDbEntity
  8
0
100
AcDbBlockEnd
  0
BLOCK
  5
4AB
330
4AA
100
AcDbEntity
  8
0
100
AcDbBlockBegin
  2
*D13
 70
     1
 10
0.0
 20
0.0
 30
0.0
  3
*D13
  1

  0
LINE
  5
96A
330
4AA
100
AcDbEntity
  8
FD_Dimensions
 62
     0
440
 16777216
370
    -2
100
AcDbLine
 10
389.3243010000002
 20
213.5153290000001
 30
0.0
 11
363.0743010000001
 21
213.5153290000001
 31
0.0
  0
LINE
  5
96B
330
4AA
100
AcDbEntity
  8
FD_Dimensions
 62
     0
440
 16777216
370
    -2
100
AcDbLine
 10
386.3243010000002
 20
198.5127515000002
 30
0.0
 11
363.0743010000001
 21
198.5127515000002
 31
0.0
  0
LINE
  5
96C
330
4AA
100
AcDbEntity
  8
FD_Dimensions
 62
     0
440
 16777216
370
    -2
100
AcDbLine
 10
365.1743010000001
 20
210.0153290000001
 30
0.0
 11
365.1743010000001
 21
202.0127515000002
 31
0.0
  0
SOLID
  5
96D
330
4AA
100
AcDbEntity
  8
FD_Dimensions
 62
     0
440
 16777216
100
AcDbTrace
 10
364.5909676666668
 20
210.0153290000001
 30
0.0
 11
365.7576343333334
 21
210.0153290000001
 31
0.0
 12
365.1743010000001
 22
213.5153290000001
 32
0.0
 13
365.1743010000001
 23
213.5153290000001
 33
0.0
  0
SOLID
  5
96E
330
4AA
100
AcDbEntity
  8
FD_Dimensions
 62
     0
440
 16777216
100
AcDbTrace
 10
364.5909676666668
 20
202.0127515000002
 30
0.0
 11
365.7576343333334
 21
202.0127515000002
 31
0.0
 12
365.1743010000001
 22
198.5127515000002
 32
0.0
 13
365.1743010000001
 23
198.5127515000002
 33
0.0
  0
MTEXT
  5
96F
330
4AA
100
AcDbEntity
  8
FD_Dimensions
 62
     0
440
 16777216
100
AcDbMText
 10
361.986101818554
 20
206.01404025
 30
0.0
 40
3.5
 41
0.0
 46
0.0
 71
     5
 72
     1
  1
37.51
 11
0.0000000000000001
 21
1.0
 31
0.0
 73
     1
 44
1.0
  0
POINT
  5
970
330
4AA
100
AcDbEntity
  8
Defpoints
 62
     0
440
 16777216
100
AcDbPoint
 10
391.4243010000003
 20
213.5153290000001
 30
0.0
  0
POINT
  5
971
330
4AA
100
AcDbEntity
  8
Defpoints
 62
     0
440
 16777216
100
AcDbPoint
 10
388.4243010000003
 20
198.5127515000002
 30
0.0
  0
POINT
  5
972
330
4AA
100
AcDbEntity
  8
Defpoints
 62
     0
440
 16777216
100
AcDbPoint
 10
365.1743010000001
 20
198.5127515000002
 30
0.0
  0
ENDBLK
  5
4AC
330
4AA
100
AcDbEntity
  8
0
100
AcDbBlockEnd
  0
BLOCK
  5
4B9
330
4B8
100
AcDbEntity
  8
0
100
AcDbBlockBegin
  2
*D14
 70
     1
 10
0.0
 20
0.0
 30
0.0
  3
*D14
  1

  0
LINE
  5
8EF
330
4B8
100
AcDbEntity
  8
FD_Dimensions
 62
     0
440
 16777216
370
    -2
100
AcDbLine
 10
360.086205
 20
257.473362
 30
0.0
 11
360.086205
 21
267.973362
 31
0.0
  0
LINE
  5
8F0
330
4B8
100
AcDbEntity
  8
FD_Dimensions
 62
     0
440
 16777216
370
    -2
100
AcDbLine
 10
386.486205
 20
257.473362
 30
0.0
 11
386.486205
 21
267.973362
 31
0.0
  0
LINE
  5
8F1
330
4B8
100
AcDbEntity
  8
FD_Dimensions
 62
     0
440
 16777216
370
    -2
100
AcDbLine
 10
363.586205
 20
265.873362
 30
0.0
 11
382.986205
 21
265.873362
 31
0.0
  0
SOLID
  5
8F2
330
4B8
100
AcDbEntity
  8
FD_Dimensions
 62
     0
440
 16777216
100
AcDbTrace
 10
363.586205
 20
266.456696
 30
0.0
 11
363.586205
 21
265.290029
 31
0.0
 12
360.086205
 22
265.873362
 32
0.0
 13
360.086205
 23
265.873362
 33
0.0
  0
SOLID
  5
8F3
330
4B8
100
AcDbEntity
  8
FD_Dimensions
 62
     0
440
 16777216
100
AcDbTrace
 10
382.986205
 20
266.456696
 30
0.0
 11
382.986205
 21
265.290029
 31
0.0
 12
386.486205
 22
265.873362
 32
0.0
 13
386.486205
 23
265.873362
 33
0.0
  0
MTEXT
  5
8F4
330
4B8
100
AcDbEntity
  8
FD_Dimensions
 62
     0
440
 16777216
100
AcDbMText
 10
373.286205
 20
269.0603680000001
 30
0.0
 40
3.5
 41
0.0
 46
0.0
 71
     5
 72
     1
  1
17.6
 73
     1
 44
1.0
  0
POINT
  5
8F5
330
4B8
100
AcDbEntity
  8
Defpoints
 62
     0
440
 16777216
100
AcDbPoint
 10
360.086205
 20
255.373362
 30
0.0
  0
POINT
  5
8F6
330
4B8
100
AcDbEntity
  8
Defpoints
 62
     0
440
 16777216
100
AcDbPoint
 10
386.486205
 20
255.373362
 30
0.0
  0
POINT
  5
8F7
330
4B8
100
AcDbEntity
  8
Defpoints
 62
     0
440
 16777216
100
AcDbPoint
 10
386.486205
 20
265.873362
 30
0.0
  0
ENDBLK
  5
4BA
330
4B8
100
AcDbEntity
  8
0
100
AcDbBlockEnd
  0
BLOCK
  5
4C5
330
4C4
100
AcDbEntity
  8
0
100
AcDbBlockBegin
  2
*D15
 70
     1
 10
0.0
 20
0.0
 30
0.0
  3
*D15
  1

  0
LINE
  5
8F8
330
4C4
100
AcDbEntity
  8
FD_Dimensions
 62
     0
440
 16777216
370
    -2
100
AcDbLine
 10
388.286205
 20
235.123362
 30
0.0
 11
399.515061
 21
235.123362
 31
0.0
  0
LINE
  5
8F9
330
4C4
100
AcDbEntity
  8
FD_Dimensions
 62
     0
440
 16777216
370
    -2
100
AcDbLine
 10
388.286205
 20
209.77783
 30
0.0
 11
399.515061
 21
209.77783
 31
0.0
  0
LINE
  5
8FA
330
4C4
100
AcDbEntity
  8
FD_Dimensions
 62
     0
440
 16777216
370
    -2
100
AcDbLine
 10
397.415061
 20
231.623362
 30
0.0
 11
397.415061
 21
213.27783
 31
0.0
  0
SOLID
  5
8FB
330
4C4
100
AcDbEntity
  8
FD_Dimensions
 62
     0
440
 16777216
100
AcDbTrace
 10
396.831727
 20
231.623362
 30
0.0
 11
397.998394
 21
231.623362
 31
0.0
 12
397.415061
 22
235.123362
 32
0.0
 13
397.415061
 23
235.123362
 33
0.0
  0
SOLID
  5
8FC
330
4C4
100
AcDbEntity
  8
FD_Dimensions
 62
     0
440
 16777216
100
AcDbTrace
 10
396.831727
 20
213.27783
 30
0.0
 11
397.998394
 21
213.27783
 31
0.0
 12
397.415061
 22
209.77783
 32
0.0
 13
397.415061
 23
209.77783
 33
0.0
  0
MTEXT
  5
8FD
330
4C4
100
AcDbEntity
  8
FD_Dimensions
 62
     0
440
 16777216
100
AcDbMText
 10
394.228055
 20
222.450596
 30
0.0
 40
3.5
 41
0.0
 46
0.0
 71
     5
 72
     1
  1
16.9
 11
0.0
 21
1.0
 31
0.0
 73
     1
 44
1.0
  0
POINT
  5
8FE
330
4C4
100
AcDbEntity
  8
Defpoints
 62
     0
440
 16777216
100
AcDbPoint
 10
386.186205
 20
235.123362
 30
0.0
  0
POINT
  5
8FF
330
4C4
100
AcDbEntity
  8
Defpoints
 62
     0
440
 16777216
100
AcDbPoint
 10
386.186205
 20
209.77783
 30
0.0
  0
POINT
  5
900
330
4C4
100
AcDbEntity
  8
Defpoints
 62
     0
440
 16777216
100
AcDbPoint
 10
397.415061
 20
209.77783
 30
0.0
  0
ENDBLK
  5
4C6
330
4C4
100
AcDbEntity
  8
0
100
AcDbBlockEnd
  0
BLOCK
  5
4D1
330
4D0
100
AcDbEntity
  8
0
100
AcDbBlockBegin
  2
*D16
 70
     1
 10
0.0
 20
0.0
 30
0.0
  3
*D16
  1

  0
LINE
  5
901
330
4D0
100
AcDbEntity
  8
FD_Dimensions
 62
     0
440
 16777216
370
    -2
100
AcDbLine
 10
386.486205
 20
235.123362
 30
0.0
 11
407.8893919999999
 21
235.123362
 31
0.0
  0
LINE
  5
902
330
4D0
100
AcDbEntity
  8
FD_Dimensions
 62
     0
440
 16777216
370
    -2
100
AcDbLine
 10
388.52242
 20
207.37783
 30
0.0
 11
407.8893919999999
 21
207.37783
 31
0.0
  0
LINE
  5
903
330
4D0
100
AcDbEntity
  8
FD_Dimensions
 62
     0
440
 16777216
370
    -2
100
AcDbLine
 10
405.789392
 20
231.623362
 30
0.0
 11
405.789392
 21
210.87783
 31
0.0
  0
SOLID
  5
904
330
4D0
100
AcDbEntity
  8
FD_Dimensions
 62
     0
440
 16777216
100
AcDbTrace
 10
405.2060589999999
 20
231.623362
 30
0.0
 11
406.372725
 21
231.623362
 31
0.0
 12
405.789392
 22
235.123362
 32
0.0
 13
405.789392
 23
235.123362
 33
0.0
  0
SOLID
  5
905
330
4D0
100
AcDbEntity
  8
FD_Dimensions
 62
     0
440
 16777216
100
AcDbTrace
 10
405.2060589999999
 20
210.87783
 30
0.0
 11
406.372725
 21
210.87783
 31
0.0
 12
405.789392
 22
207.37783
 32
0.0
 13
405.789392
 23
207.37783
 33
0.0
  0
MTEXT
  5
906
330
4D0
100
AcDbEntity
  8
FD_Dimensions
 62
     0
440
 16777216
100
AcDbMText
 10
402.6023859999999
 20
221.250596
 30
0.0
 40
3.5
 41
0.0
 46
0.0
 71
     5
 72
     1
  1
18.5
 11
0.0
 21
1.0
 31
0.0
 73
     1
 44
1.0
  0
POINT
  5
907
330
4D0
100
AcDbEntity
  8
Defpoints
 62
     0
440
 16777216
100
AcDbPoint
 10
384.386205
 20
235.123362
 30
0.0
  0
POINT
  5
908
330
4D0
100
AcDbEntity
  8
Defpoints
 62
     0
440
 16777216
100
AcDbPoint
 10
386.4224200000001
 20
207.37783
 30
0.0
  0
POINT
  5
909
330
4D0
100
AcDbEntity
  8
Defpoints
 62
     0
440
 16777216
100
AcDbPoint
 10
405.789392
 20
207.37783
 30
0.0
  0
ENDBLK
  5
4D2
330
4D0
100
AcDbEntity
  8
0
100
AcDbBlockEnd
  0
BLOCK
  5
4DD
330
4DC
100
AcDbEntity
  8
0
100
AcDbBlockBegin
  2
*D17
 70
     1
 10
0.0
 20
0.0
 30
0.0
  3
*D17
  1

  0
LINE
  5
90A
330
4DC
100
AcDbEntity
  8
FD_Dimensions
 62
     0
440
 16777216
370
    -2
100
AcDbLine
 10
359.70572
 20
205.716581
 30
0.0
 11
359.70572
 21
195.216581
 31
0.0
  0
LINE
  5
90B
330
4DC
100
AcDbEntity
  8
FD_Dimensions
 62
     0
440
 16777216
370
    -2
100
AcDbLine
 10
386.866689
 20
205.716581
 30
0.0
 11
386.866689
 21
195.216581
 31
0.0
  0
LINE
  5
90C
330
4DC
100
AcDbEntity
  8
FD_Dimensions
 62
     0
440
 16777216
370
    -2
100
AcDbLine
 10
363.2057200000001
 20
197.316581
 30
0.0
 11
383.366689
 21
197.316581
 31
0.0
  0
SOLID
  5
90D
330
4DC
100
AcDbEntity
  8
FD_Dimensions
 62
     0
440
 16777216
100
AcDbTrace
 10
363.2057200000001
 20
197.899914
 30
0.0
 11
363.2057200000001
 21
196.733247
 31
0.0
 12
359.70572
 22
197.316581
 32
0.0
 13
359.70572
 23
197.316581
 33
0.0
  0
SOLID
  5
90E
330
4DC
100
AcDbEntity
  8
FD_Dimensions
 62
     0
440
 16777216
100
AcDbTrace
 10
383.366689
 20
197.899914
 30
0.0
 11
383.366689
 21
196.733247
 31
0.0
 12
386.866689
 22
197.316581
 32
0.0
 13
386.866689
 23
197.316581
 33
0.0
  0
MTEXT
  5
90F
330
4DC
100
AcDbEntity
  8
FD_Dimensions
 62
     0
440
 16777216
100
AcDbMText
 10
373.286205
 20
200.503586
 30
0.0
 40
3.5
 41
0.0
 46
0.0
 71
     5
 72
     1
  1
18.11
 73
     1
 44
1.0
  0
POINT
  5
910
330
4DC
100
AcDbEntity
  8
Defpoints
 62
     0
440
 16777216
100
AcDbPoint
 10
359.70572
 20
207.816581
 30
0.0
  0
POINT
  5
911
330
4DC
100
AcDbEntity
  8
Defpoints
 62
     0
440
 16777216
100
AcDbPoint
 10
386.866689
 20
207.816581
 30
0.0
  0
POINT
  5
912
330
4DC
100
AcDbEntity
  8
Defpoints
 62
     0
440
 16777216
100
AcDbPoint
 10
386.866689
 20
197.316581
 30
0.0
  0
ENDBLK
  5
4DE
330
4DC
100
AcDbEntity
  8
0
100
AcDbBlockEnd
  0
BLOCK
  5
4E9
330
4E8
100
AcDbEntity
  8
0
100
AcDbBlockBegin
  2
*D18
 70
     1
 10
0.0
 20
0.0
 30
0.0
  3
*D18
  1

  0
LINE
  5
913
330
4E8
100
AcDbEntity
  8
FD_Dimensions
 62
     0
440
 16777216
370
    -2
100
AcDbLine
 10
387.836205
 20
256.123362
 30
0.0
 11
401.5629719999999
 21
256.123362
 31
0.0
  0
LINE
  5
914
330
4E8
100
AcDbEntity
  8
FD_Dimensions
 62
     0
440
 16777216
370
    -2
100
AcDbLine
 10
388.286205
 20
250.123362
 30
0.0
 11
401.5629719999999
 21
250.123362
 31
0.0
  0
LINE
  5
915
330
4E8
100
AcDbEntity
  8
FD_Dimensions
 62
     0
440
 16777216
370
    -2
100
AcDbLine
 10
399.462972
 20
259.623362
 30
0.0
 11
399.462972
 21
263.123362
 31
0.0
  0
LINE
  5
916
330
4E8
100
AcDbEntity
  8
FD_Dimensions
 62
     0
440
 16777216
370
    -2
100
AcDbLine
 10
399.462972
 20
246.623362
 30
0.0
 11
399.462972
 21
243.123362
 31
0.0
  0
LINE
  5
917
330
4E8
100
AcDbEntity
  8
FD_Dimensions
 62
     0
440
 16777216
370
    -2
100
AcDbLine
 10
399.462972
 20
256.123362
 30
0.0
 11
399.462972
 21
250.123362
 31
0.0
  0
SOLID
  5
918
330
4E8
100
AcDbEntity
  8
FD_Dimensions
 62
     0
440
 16777216
100
AcDbTrace
 10
398.879639
 20
259.623362
 30
0.0
 11
400.0463049999999
 21
259.623362
 31
0.0
 12
399.462972
 22
256.123362
 32
0.0
 13
399.462972
 23
256.123362
 33
0.0
  0
SOLID
  5
919
330
4E8
100
AcDbEntity
  8
FD_Dimensions
 62
     0
440
 16777216
100
AcDbTrace
 10
398.879639
 20
246.623362
 30
0.0
 11
400.0463049999999
 21
246.623362
 31
0.0
 12
399.462972
 22
250.123362
 32
0.0
 13
399.462972
 23
250.123362
 33
0.0
  0
MTEXT
  5
91A
330
4E8
100
AcDbEntity
  8
FD_Dimensions
 62
     0
440
 16777216
100
AcDbMText
 10
396.312972
 20
253.123362
 30
0.0
 40
3.5
 41
0.0
 46
0.0
 71
     5
 72
     1
  1
4
 11
0.0
 21
1.0
 31
0.0
 73
     1
 44
1.0
  0
POINT
  5
91B
330
4E8
100
AcDbEntity
  8
Defpoints
 62
     0
440
 16777216
100
AcDbPoint
 10
385.736205
 20
256.123362
 30
0.0
  0
POINT
  5
91C
330
4E8
100
AcDbEntity
  8
Defpoints
 62
     0
440
 16777216
100
AcDbPoint
 10
386.186205
 20
250.123362
 30
0.0
  0
POINT
  5
91D
330
4E8
100
AcDbEntity
  8
Defpoints
 62
     0
440
 16777216
100
AcDbPoint
 10
399.462972
 20
250.123362
 30
0.0
  0
ENDBLK
  5
4EA
330
4E8
100
AcDbEntity
  8
0
100
AcDbBlockEnd
  0
BLOCK
  5
942
330
941
100
AcDbEntity
  8
0
100
AcDbBlockBegin
  2
*D20
 70
     1
 10
0.0
 20
0.0
 30
0.0
  3
*D20
  1

  0
LINE
  5
973
330
941
100
AcDbEntity
  8
0
 62
     0
440
 16777216
370
    -2
100
AcDbLine
 10
753.4243009999999
 20
308.087454
 30
0.0
 11
753.4243009999999
 21
282.4238626630592
 31
0.0
  0
LINE
  5
974
330
941
100
AcDbEntity
  8
0
 62
     0
440
 16777216
370
    -2
100
AcDbLine
 10
53.42430100000001
 20
308.087454
 30
0.0
 11
53.42430100000001
 21
282.4238626630592
 31
0.0
  0
LINE
  5
975
330
941
100
AcDbEntity
  8
0
 62
     0
440
 16777216
370
    -2
100
AcDbLine
 10
749.9243009999998
 20
284.5238626630592
 30
0.0
 11
56.92430100000001
 21
284.5238626630592
 31
0.0
  0
SOLID
  5
976
330
941
100
AcDbEntity
  8
0
 62
     0
440
 16777216
100
AcDbTrace
 10
749.9243009999998
 20
285.1071959963925
 30
0.0
 11
749.9243009999998
 21
283.9405293297259
 31
0.0
 12
753.4243009999999
 22
284.5238626630592
 32
0.0
 13
753.4243009999999
 23
284.5238626630592
 33
0.0
  0
SOLID
  5
977
330
941
100
AcDbEntity
  8
0
 62
     0
440
 16777216
100
AcDbTrace
 10
56.92430100000001
 20
285.1071959963925
 30
0.0
 11
56.92430100000001
 21
283.9405293297259
 31
0.0
 12
53.42430100000001
 22
284.5238626630592
 32
0.0
 13
53.42430100000001
 23
284.5238626630592
 33
0.0
  0
MTEXT
  5
978
330
941
100
AcDbEntity
  8
0
 62
     0
440
 16777216
100
AcDbMText
 10
403.4243009999999
 20
287.7108681200851
 30
0.0
 40
3.5
 41
0.0
 46
0.0
 71
     5
 72
     1
  1
700
 73
     1
 44
1.0
  0
POINT
  5
979
330
941
100
AcDbEntity
  8
Defpoints
 62
     0
440
 16777216
100
AcDbPoint
 10
753.4243009999999
 20
310.187454
 30
0.0
  0
POINT
  5
97A
330
941
100
AcDbEntity
  8
Defpoints
 62
     0
440
 16777216
100
AcDbPoint
 10
53.42430100000001
 20
310.187454
 30
0.0
  0
POINT
  5
97B
330
941
100
AcDbEntity
  8
Defpoints
 62
     0
440
 16777216
100
AcDbPoint
 10
53.42430100000001
 20
284.5238626630592
 30
0.0
  0
ENDBLK
  5
943
330
941
100
AcDbEntity
  8
0
100
AcDbBlockEnd
  0
ENDSEC
  0
SECTION
  2
ENTITIES
  0
HATCH
  5
3FC
330
70
100
AcDbEntity
  8
Hatching
100
AcDbHatch
 10
0.0
 20
0.0
 30
0.0
210
0.0
220
0.0
230
1.0
  2
ANSI31
 70
     0
 71
     0
 91
        6
 92
        0
 93
        4
 72
     1
 10
808.5154800296438
 20
215.5051189882693
 11
808.6093161560254
 21
223.0120090988085
 72
     1
 10
808.6093161560254
 20
223.0120090988085
 11
808.3093395907789
 21
223.015758805874
 72
     1
 10
808.3093395907789
 20
223.015758805874
 11
808.2155034643971
 21
215.508868695335
 72
     1
 10
808.2155034643976
 20
215.5088686953351
 11
808.5154800296439
 21
215.5051189882693
 97
        0
 92
        0
 93
        7
 72
     1
 10
808.6343142031292
 20
225.0118528671167
 11
808.678060785561
 21
228.5115794616559
 72
     1
 10
808.6780607855613
 20
228.511579461656
 11
808.3780842203148
 21
228.5153291687215
 72
     1
 10
808.3780842203143
 20
228.5153291687215
 11
808.3343376378826
 21
225.0156025741823
 72
     1
 10
808.3343376378826
 20
225.0156025741823
 11
806.6503738177248
 21
223.9365910578405
 72
     1
 10
806.6503738177248
 20
223.9365910578408
 11
806.8122255451758
 21
223.683996484817
 72
     1
 10
806.8122255451756
 20
223.683996484817
 11
808.4961893653341
 21
224.7630080011588
 72
     3
 10
808.3343376378829
 20
225.0156025741825
 11
0.1618517274512532
 21
-0.2525945730237488
 40
1.0
 50
360.0
 51
416.6338400545276
 73
     1
 97
        0
 92
        0
 93
        4
 72
     1
 10
790.6656474001667
 20
215.508868695331
 11
790.5690393518725
 21
223.2375125588603
 72
     1
 10
790.5690393518725
 20
223.2375125588603
 11
790.2689690293001
 21
223.2412634378925
 72
     1
 10
790.2689690293001
 20
223.2412634378925
 11
790.3656708349207
 21
215.5051189882656
 72
     1
 10
790.3656708349207
 20
215.5051189882655
 11
790.6656474001665
 21
215.508868695331
 97
        0
 92
        0
 93
        4
 72
     1
 10
792.3869816761794
 20
213.8127511993448
 11
792.3907316761792
 21
213.5127511993448
 72
     1
 10
792.3907316761792
 20
213.5127511993448
 11
795.5708180701862
 21
213.5127511993448
 72
     1
 10
795.5708180701862
 20
213.5127511993448
 11
795.5708180701862
 21
213.8127511993448
 72
     1
 10
795.5708180701862
 20
213.8127511993448
 11
792.3869816761794
 21
213.8127511993448
 97
        0
 92
        0
 93
        4
 72
     1
 10
806.1903957513065
 20
213.5127511993448
 11
806.1941457513068
 21
213.8127511993448
 72
     1
 10
806.1941457513066
 20
213.8127511993448
 11
803.3103327943781
 21
213.8127511993448
 72
     1
 10
803.3103327943781
 20
213.8127511993448
 11
803.3103327943781
 21
213.5127511993448
 72
     1
 10
803.3103327943781
 20
213.5127511993448
 11
806.1903957513065
 21
213.5127511993448
 97
        0
 92
        0
 93
        7
 72
     3
 10
790.5440334916581
 20
225.23798137601
 11
-0.2999765652460705
 21
-0.003749707065579
 40
1.0
 50
360.0
 51
416.6338400545456
 73
     1
 72
     1
 10
790.3821817642069
 20
224.9853868029862
 11
792.0661455843652
 21
223.9063752866445
 72
     1
 10
792.0661455843652
 20
223.9063752866445
 11
792.2279973118163
 21
224.1589698596685
 72
     1
 10
792.2279973118163
 20
224.1589698596685
 11
790.5440334916582
 21
225.23798137601
 72
     1
 10
790.5440334916581
 20
225.23798137601
 11
790.5030666442493
 21
228.5153291687215
 72
     1
 10
790.5030666442493
 20
228.5153291687215
 11
790.2030900790029
 21
228.511579461656
 72
     1
 10
790.2030900790029
 20
228.511579461656
 11
790.2440569264119
 21
225.2342316689442
 97
        0
 75
     0
 76
     1
 52
90.0
 41
2.5
 77
     0
 78
     1
 53
135.0
 43
-130.5409786412115
 44
-133.8280035
 45
-5.61266007566822
 46
-5.61266007566822
 79
     0
 98
        1
 10
799.4405754322822
 20
229.7612621099667
1001
ACAD_MODELDOC_XFORM
1011
799.4405763587885
1021
215.1127515
1031
658.0062049999999
1013
0.4
1023
0.0
1033
0.0
1013
0.0
1023
0.4
1033
0.0
1013
0.0
1023
0.0
1033
0.4
  0
HATCH
  5
3FE
330
70
100
AcDbEntity
  8
Hatching
100
AcDbHatch
 10
0.0
 20
0.0
 30
0.0
210
0.0
220
0.0
230
1.0
  2
ANSI31
 70
     0
 71
     0
 91
        1
 92
        0
 93
       28
 72
     1
 10
792.9303001681677
 20
240.94525316145
 11
793.0264653266367
 21
241.0619688481487
 72
     3
 10
792.6405754322826
 20
241.3799137953259
 11
0.3858898943540667
 21
-0.317944947177038
 40
1.0
 50
359.9999999999973
 51
399.4860175586676
 73
     1
 72
     1
 10
793.1405754322827
 20
241.3799137953259
 11
793.1405754322827
 21
242.009773020589
 72
     3
 10
792.1405754322826
 20
242.0097730205887
 11
1.000000000000182
 21
0.0000000000002843
 40
1.0
 50
0.0
 51
89.99999999997424
 73
     1
 72
     1
 10
792.1405754322826
 20
243.0097730205887
 11
791.6405754322826
 21
243.0097730205887
 72
     1
 10
791.6405754322826
 20
243.0097730205887
 11
791.6405754322826
 21
244.5097730205887
 72
     1
 10
791.6405754322826
 20
244.5097730205887
 11
807.2405754322819
 21
244.5097730205887
 72
     1
 10
807.2405754322819
 20
244.5097730205887
 11
807.2405754322819
 21
243.0097730205887
 72
     1
 10
807.2405754322819
 20
243.0097730205887
 11
806.7405754322818
 21
243.0097730205887
 72
     3
 10
806.7405754322818
 20
242.0097730205887
 11
-0.0000000000000588
 21
1.000000000000058
 40
1.0
 50
0.0000000000005725
 51
89.99999999999344
 73
     1
 72
     1
 10
805.740575432282
 20
242.0097730205887
 11
805.7405754322831
 21
241.3799137953258
 72
     3
 10
806.2405754322838
 20
241.3799137953263
 11
-0.5000000000010262
 21
-0.0000000000003863
 40
1.0
 50
0.0
 51
39.48601755858765
 73
     1
 72
     1
 10
805.8546855379287
 20
241.0619688481487
 11
805.9508506963968
 21
240.9452531614499
 72
     3
 10
806.3367405907522
 20
241.263198108627
 11
-0.3858898943544278
 21
-0.3179449471760565
 40
1.0
 50
359.9999999999988
 51
540.0
 73
     1
 72
     1
 10
806.7226304851065
 20
241.581143055803
 11
806.6390414956689
 21
241.682595041718
 72
     3
 10
806.7933974534108
 20
241.8097730205888
 11
-0.1543559577417375
 21
-0.127177978870856
 40
1.0
 50
0.0000000000018189
 51
129.4860175586199
 73
     0
 72
     1
 10
806.7933974534104
 20
242.009773020589
 11
808.0405754322821
 21
242.0097730205887
 72
     3
 10
808.0405754322821
 20
242.2097730205888
 11
0.0
 21
-0.2000000000000002
 40
1.0
 50
0.0000000000044528
 51
90.0
 73
     1
 72
     1
 10
808.2405754322818
 20
242.2097730205888
 11
808.2405754322813
 21
245.5097730205888
 72
     3
 10
807.7405754322819
 20
245.5097730205887
 11
0.4999999999999915
 21
-0.000000000000009
 40
1.0
 50
360.0
 51
450.0000000000013
 73
     1
 72
     1
 10
807.7405754322819
 20
246.0097730205887
 11
791.1405754322827
 21
246.0097730205887
 72
     3
 10
791.1405754322827
 20
245.5097730205887
 11
-0.0000000000000045
 21
0.5000000000000071
 40
1.0
 50
359.9999999999984
 51
449.9999999999993
 73
     1
 72
     1
 10
790.6405754322827
 20
245.5097730205887
 11
790.6405754322827
 21
242.2097730205887
 72
     3
 10
790.8405754322826
 20
242.2097730205888
 11
-0.200000000000028
 21
-0.0000000000000355
 40
1.0
 50
360.0
 51
449.9999999999911
 73
     1
 72
     1
 10
790.8405754322826
 20
242.0097730205887
 11
792.0877534111526
 21
242.0097730205887
 72
     3
 10
792.0877534111526
 20
241.8097730205888
 11
-0.0000000000000023
 21
0.2000000000000002
 40
1.0
 50
359.9999999999988
 51
489.4860175585856
 73
     0
 72
     1
 10
792.2421093688945
 20
241.6825950417183
 11
792.1585203794598
 21
241.5811430558039
 72
     3
 10
792.5444102738138
 20
241.263198108627
 11
-0.3858898943540157
 21
0.3179449471770912
 40
1.0
 50
359.9999999999996
 51
539.9999999999978
 73
     1
 97
        0
 75
     0
 76
     1
 52
180.0
 41
2.5
 77
     0
 78
     1
 53
225.0
 43
-130.5409786412115
 44
-133.8280035
 45
5.612660075668217
 46
-5.61266007566822
 79
     0
 98
        1
 10
799.4405754322822
 20
229.7612621099667
1001
ACAD_MODELDOC_XFORM
1011
799.4405763587885
1021
215.1127515
1031
658.0062049999999
1013
0.4
1023
0.0
1033
0.0
1013
0.0
1023
0.4
1033
0.0
1013
0.0
1023
0.0
1033
0.4
  0
HATCH
  5
3FF
330
70
100
AcDbEntity
  8
Hatching
100
AcDbHatch
 10
0.0
 20
0.0
 30
0.0
210
0.0
220
0.0
230
1.0
  2
ANSI31
 70
     0
 71
     0
 91
        1
 92
        0
 93
       65
 72
     1
 10
804.1405754322822
 20
218.1127511993448
 11
799.7405754322823
 21
218.1127511993448
 72
     1
 10
799.7405754322821
 20
218.1127511993448
 11
799.4405754322825
 21
217.8127511993448
 72
     1
 10
799.4405754322826
 20
217.8127511993448
 11
799.1405754322823
 21
218.1127511993448
 72
     1
 10
799.1405754322823
 20
218.1127511993448
 11
794.7405754322823
 21
218.1127511993448
 72
     1
 10
794.7405754322821
 20
218.1127511993448
 11
794.4405754322826
 21
217.8127511993448
 72
     1
 10
794.4405754322827
 20
217.8127511993448
 11
794.1405754322823
 21
218.1127511993448
 72
     1
 10
794.1405754322823
 20
218.1127511993448
 11
791.8405754322827
 21
218.1127511993448
 72
     1
 10
791.8405754322825
 20
218.1127511993448
 11
791.8405754322825
 21
229.023468249174
 72
     1
 10
791.8405754322825
 20
229.0234682491738
 11
792.3405754322822
 21
229.0234682491738
 72
     1
 10
792.3405754322823
 20
229.0234682491738
 11
792.3405754322823
 21
229.199204180462
 72
     3
 10
792.0405754322827
 20
229.1992041804623
 11
0.2999999999994707
 21
-0.0000000000003288
 40
1.0
 50
0.0
 51
45.00000000008525
 73
     1
 72
     1
 10
792.2527074666382
 20
229.4113362148179
 11
791.8405754322825
 21
229.8234682491739
 72
     1
 10
791.8405754322825
 20
229.823468249174
 11
791.8405754322825
 21
231.3303235488186
 72
     3
 10
792.3405754322823
 20
231.3303235488185
 11
-0.4999999999999483
 21
0.0
 40
1.0
 50
0.0
 51
39.48601755867691
 73
     0
 72
     1
 10
791.9546855379281
 20
231.6482684959955
 11
792.1177534111534
 21
231.8461840311536
 72
     3
 10
792.0405754322827
 20
231.9097730205887
 11
0.0771779788707573
 21
-0.0635889894354057
 40
1.0
 50
359.9999999999882
 51
489.4860175586848
 73
     1
 72
     1
 10
792.0405754322827
 20
232.0097730205887
 11
790.8405754322826
 21
232.0097730205887
 72
     3
 10
790.8405754322826
 20
231.8097730205888
 11
-0.000000000000121
 21
0.2000000000001223
 40
1.0
 50
359.9999999999997
 51
449.9999999999157
 73
     1
 72
     1
 10
790.6405754322827
 20
231.8097730205889
 11
790.6405754322827
 21
230.2097730205887
 72
     1
 10
790.6405754322827
 20
230.2097730205887
 11
791.1405754322827
 21
230.2097730205887
 72
     1
 10
791.1405754322827
 20
230.2097730205887
 11
791.1405754322827
 21
229.0097730205888
 72
     1
 10
791.1405754322823
 20
229.0097730205887
 11
790.6405754322823
 21
229.0097730205887
 72
     1
 10
790.6405754322823
 20
229.0097730205887
 11
790.6405754322823
 21
225.9773637373887
 72
     1
 10
790.6405754322823
 20
225.9773637373887
 11
791.1405754322823
 21
225.9773637373887
 72
     1
 10
791.1405754322823
 20
225.9773637373887
 11
791.1405754322823
 21
222.9773637373888
 72
     1
 10
791.1405754322823
 20
222.9773637373888
 11
790.6405754322823
 21
222.9773637373888
 72
     1
 10
790.6405754322823
 20
222.9773637373888
 11
790.6405754322827
 21
215.3127511993448
 72
     3
 10
790.8405754322826
 20
215.3127511993448
 11
-0.2000000000000002
 21
0.0000000000000038
 40
1.0
 50
359.9999999999998
 51
450.0000000000007
 73
     1
 72
     1
 10
790.8405754322826
 20
215.1127511993448
 11
792.3405754322823
 21
215.1127511993448
 72
     3
 10
792.3405754322823
 20
215.4127511993448
 11
-0.0000000000000033
 21
-0.299999999999997
 40
1.0
 50
0.0000000000023324
 51
90.00000000000106
 73
     1
 72
     1
 10
792.6405754322822
 20
215.4127511993448
 11
792.6405754322822
 21
215.8127511993448
 72
     3
 10
792.3405754322823
 20
215.8127511993445
 11
0.3000000000000003
 21
0.0000000000000003
 40
1.0
 50
360.0
 51
450.0
 73
     1
 72
     1
 10
792.3405754322823
 20
216.1127511993448
 11
791.6405754322827
 21
216.1127511993448
 72
     1
 10
791.6405754322826
 20
216.1127511993448
 11
791.6405754322826
 21
217.1127511993448
 72
     1
 10
791.6405754322826
 20
217.1127511993448
 11
807.2405754322826
 21
217.1127511993448
 72
     1
 10
807.2405754322826
 20
217.1127511993448
 11
807.2405754322826
 21
216.1127511993448
 72
     1
 10
807.2405754322826
 20
216.1127511993448
 11
806.5405754322823
 21
216.1127511993448
 72
     3
 10
806.5405754322823
 20
215.8127511993445
 11
-0.000000000000001
 21
0.3000000000000015
 40
1.0
 50
0.0000000000023324
 51
89.99999999999934
 73
     1
 72
     1
 10
806.2405754322822
 20
215.8127511993445
 11
806.2405754322826
 21
215.4127511993447
 72
     3
 10
806.5405754322826
 20
215.4127511993448
 11
-0.2999999999999993
 21
0.0000000000000008
 40
1.0
 50
359.9999999999997
 51
449.9999999999998
 73
     1
 72
     1
 10
806.5405754322826
 20
215.1127511993448
 11
808.0405754322821
 21
215.1127511993448
 72
     3
 10
808.0405754322821
 20
215.3127511993448
 11
-0.0000000000000055
 21
-0.1999999999999965
 40
1.0
 50
0.0000000000028625
 51
89.99999999999905
 73
     1
 72
     1
 10
808.2405754322822
 20
215.3127511993448
 11
808.2405754322829
 21
222.9773637373888
 72
     1
 10
808.2405754322826
 20
222.9773637373888
 11
807.7405754322827
 21
222.9773637373888
 72
     1
 10
807.7405754322827
 20
222.9773637373888
 11
807.7405754322827
 21
225.9773637373887
 72
     1
 10
807.7405754322827
 20
225.9773637373887
 11
808.2405754322826
 21
225.9773637373887
 72
     1
 10
808.2405754322826
 20
225.9773637373887
 11
808.2405754322824
 21
229.0097730205888
 72
     1
 10
808.2405754322822
 20
229.0097730205887
 11
807.7405754322827
 21
229.0097730205887
 72
     1
 10
807.7405754322827
 20
229.0097730205887
 11
807.7405754322827
 21
230.209773020589
 72
     1
 10
807.7405754322827
 20
230.2097730205887
 11
808.2405754322822
 21
230.2097730205887
 72
     1
 10
808.2405754322818
 20
230.2097730205887
 11
808.2405754322818
 21
231.8097730205889
 72
     3
 10
808.0405754322816
 20
231.8097730205888
 11
0.2000000000001767
 21
0.0000000000002775
 40
1.0
 50
0.0
 51
89.99999999988899
 73
     1
 72
     1
 10
808.040575432282
 20
232.0097730205887
 11
806.8405754322823
 21
232.0097730205887
 72
     3
 10
806.8405754322819
 20
231.9097730205887
 11
0.0000000000001733
 21
0.0999999999998293
 40
1.0
 50
359.9999999999974
 51
489.4860175587125
 73
     1
 72
     1
 10
806.7633974534114
 20
231.8461840311536
 11
806.9264653266365
 21
231.6482684959955
 72
     3
 10
806.5405754322823
 20
231.3303235488185
 11
0.3858898943542645
 21
0.3179449471770113
 40
1.0
 50
359.9999999999984
 51
399.4860175586434
 73
     0
 72
     1
 10
807.0405754322822
 20
231.3303235488185
 11
807.0405754322822
 21
229.823468249174
 72
     1
 10
807.0405754322822
 20
229.823468249174
 11
806.6284433979264
 21
229.4113362148177
 72
     3
 10
806.8405754322824
 20
229.199204180462
 11
-0.212132034356043
 21
0.2121320343559808
 40
1.0
 50
0.0000000000021071
 51
44.99999999999074
 73
     1
 72
     1
 10
806.5405754322826
 20
229.199204180462
 11
806.5405754322823
 21
229.0234682491739
 72
     1
 10
806.5405754322823
 20
229.0234682491738
 11
807.0405754322823
 21
229.0234682491738
 72
     1
 10
807.0405754322822
 20
229.0234682491738
 11
807.0405754322827
 21
218.1127511993448
 72
     1
 10
807.0405754322827
 20
218.1127511993448
 11
804.7405754322825
 21
218.1127511993446
 72
     1
 10
804.7405754322825
 20
218.1127511993448
 11
804.4405754322827
 21
217.8127511993448
 72
     1
 10
804.4405754322827
 20
217.8127511993448
 11
804.1405754322822
 21
218.1127511993448
 97
        0
 75
     0
 76
     1
 52
105.0
 41
2.5
 77
     0
 78
     1
 53
150.0
 43
-130.5409786412115
 44
-133.8280035
 45
-3.96875
 46
-6.874076642538979
 79
     0
 98
        1
 10
799.4405754322822
 20
229.7612621099667
1001
ACAD_MODELDOC_XFORM
1011
799.4405763587885
1021
215.1127515
1031
658.0062049999999
1013
0.4
1023
0.0
1033
0.0
1013
0.0
1023
0.4
1033
0.0
1013
0.0
1023
0.0
1033
0.4
  0
ELLIPSE
  5
5DB
330
70
100
AcDbEntity
  8
Visible
100
AcDbEllipse
 10
150.424301
 20
225.511814
 30
0.0
 11
-3.000000000000004
 21
0.0000000175529353
 31
0.0
210
0.0
220
-0.0000000000000002
230
-1.0
 40
0.9999218841543678
 41
1.570796320944375
 42
3.141592647738357
  0
LINE
  5
5DC
330
70
100
AcDbEntity
  8
Visible
100
AcDbLine
 10
153.424301
 20
225.511814
 30
0.0
 11
153.424301
 21
225.515564
 31
0.0
210
-1.0
220
0.0000000000000002
230
0.0
  0
ELLIPSE
  5
5DD
330
70
100
AcDbEntity
  8
Visible
100
AcDbEllipse
 10
150.424301
 20
225.515564
 30
0.0
 11
-3.000000000000004
 21
0.0000000072638065
 31
0.0
210
0.0
220
0.0000000000000002
230
1.0
 40
0.9999218841543678
 41
3.141592656011249
 42
4.712388982805769
  0
LINE
  5
5DE
330
70
100
AcDbEntity
  8
Visible
100
AcDbLine
 10
126.424301
 20
228.511579
 30
0.0
 11
150.424301
 21
228.511579
 31
0.0
210
-1.0
220
0.0000000000000002
230
0.0
  0
ELLIPSE
  5
5DF
330
70
100
AcDbEntity
  8
Visible
100
AcDbEllipse
 10
126.424301
 20
225.511814
 30
0.0
 11
3.000000000000042
 21
0.0000000177804033
 31
0.0
210
0.0
220
-0.0000000000000002
230
-1.0
 40
0.9999218841543559
 41
3.141592659517056
 42
4.712388986311014
  0
LINE
  5
5E0
330
70
100
AcDbEntity
  8
Visible
100
AcDbLine
 10
123.424301
 20
225.511814
 30
0.0
 11
123.424301
 21
213.8052515
 31
0.0
210
-1.0
220
0.0000000000000002
230
0.0
  0
LINE
  5
5E1
330
70
100
AcDbEntity
  8
Visible
100
AcDbLine
 10
133.424301
 20
213.8052515
 30
0.0
 11
133.424301
 21
215.505119
 31
0.0
210
-1.0
220
0.0000000000000002
230
0.0
  0
LINE
  5
5E2
330
70
100
AcDbEntity
  8
Visible
100
AcDbLine
 10
133.424301
 20
215.505119
 30
0.0
 11
143.424301
 21
215.505119
 31
0.0
210
-1.0
220
0.0000000000000002
230
0.0
  0
LINE
  5
5E3
330
70
100
AcDbEntity
  8
Visible
100
AcDbLine
 10
143.424301
 20
215.505119
 30
0.0
 11
143.424301
 21
213.8052515
 31
0.0
210
-1.0
220
0.0000000000000002
230
0.0
  0
LINE
  5
5E4
330
70
100
AcDbEntity
  8
Visible
100
AcDbLine
 10
153.424301
 20
225.511814
 30
0.0
 11
153.424301
 21
213.8052515
 31
0.0
210
-1.0
220
0.0000000000000002
230
0.0
  0
LINE
  5
5E5
330
70
100
AcDbEntity
  8
Visible
100
AcDbLine
 10
133.424301
 20
223.012009
 30
0.0
 11
133.424301
 21
225.011854
 31
0.0
210
-1.0
220
0.0000000000000002
230
0.0
  0
LINE
  5
5E6
330
70
100
AcDbEntity
  8
Visible
100
AcDbLine
 10
143.424301
 20
225.011854
 30
0.0
 11
143.424301
 21
223.012009
 31
0.0
210
-1.0
220
0.0000000000000002
230
0.0
  0
LINE
  5
5E7
330
70
100
AcDbEntity
  8
Visible
100
AcDbLine
 10
143.424301
 20
223.012009
 30
0.0
 11
133.424301
 21
223.012009
 31
0.0
210
-1.0
220
0.0000000000000002
230
0.0
  0
LINE
  5
5E8
330
70
100
AcDbEntity
  8
Visible
100
AcDbLine
 10
126.424301
 20
228.515329
 30
0.0
 11
150.424301
 21
228.515329
 31
0.0
210
-1.0
220
0.0000000000000002
230
0.0
  0
ELLIPSE
  5
5E9
330
70
100
AcDbEntity
  8
Visible
100
AcDbEllipse
 10
126.424301
 20
225.515564
 30
0.0
 11
2.99999999999997
 21
0.0000000073560573
 31
0.0
210
0.0
220
0.0000000000000002
230
1.0
 40
0.99992188415438
 41
1.570796324343068
 42
3.141592651137582
  0
LINE
  5
5EA
330
70
100
AcDbEntity
  8
Visible
100
AcDbLine
 10
123.424301
 20
225.515564
 30
0.0
 11
123.424301
 21
225.511814
 31
0.0
210
-1.0
220
0.0000000000000002
230
0.0
  0
LINE
  5
5EB
330
70
100
AcDbEntity
  8
Visible
100
AcDbLine
 10
133.424301
 20
213.8127515
 30
0.0
 11
143.424301
 21
213.8127515
 31
0.0
210
-1.0
220
0.0000000000000002
230
0.0
  0
LINE
  5
5EC
330
70
100
AcDbEntity
  8
Visible
100
AcDbLine
 10
143.424301
 20
213.5127515000001
 30
0.0
 11
133.424301
 21
213.5127515000001
 31
0.0
210
-1.0
220
0.0000000000000002
230
0.0
  0
LINE
  5
5ED
330
70
100
AcDbEntity
  8
Visible
100
AcDbLine
 10
143.424301
 20
213.5127515000001
 30
0.0
 11
143.424301
 21
213.8052515
 31
0.0
210
-1.0
220
0.0000000000000002
230
0.0
  0
LINE
  5
5EE
330
70
100
AcDbEntity
  8
Visible
100
AcDbLine
 10
143.424301
 20
213.5127515000001
 30
0.0
 11
153.424301
 21
213.5127515000001
 31
0.0
210
-1.0
220
0.0000000000000002
230
0.0
  0
LINE
  5
5EF
330
70
100
AcDbEntity
  8
Visible
100
AcDbLine
 10
153.424301
 20
213.5127515000001
 30
0.0
 11
153.424301
 21
213.8052515
 31
0.0
210
-1.0
220
0.0000000000000002
230
0.0
  0
LINE
  5
5F0
330
70
100
AcDbEntity
  8
Visible
100
AcDbLine
 10
133.424301
 20
213.8052515
 30
0.0
 11
133.424301
 21
213.5127515000001
 31
0.0
210
-1.0
220
0.0000000000000002
230
0.0
  0
LINE
  5
5F1
330
70
100
AcDbEntity
  8
Visible
100
AcDbLine
 10
123.424301
 20
213.8052515
 30
0.0
 11
123.424301
 21
213.5127515000001
 31
0.0
210
-1.0
220
0.0000000000000002
230
0.0
  0
LINE
  5
5F2
330
70
100
AcDbEntity
  8
Visible
100
AcDbLine
 10
123.424301
 20
213.5127515000001
 30
0.0
 11
133.424301
 21
213.5127515000001
 31
0.0
210
-1.0
220
0.0000000000000002
230
0.0
  0
LINE
  5
5F3
330
70
100
AcDbEntity
  8
Visible
100
AcDbLine
 10
133.424301
 20
223.0157590000001
 30
0.0
 11
143.424301
 21
223.0157590000001
 31
0.0
210
-1.0
220
0.0000000000000002
230
0.0
  0
ELLIPSE
  5
5F4
330
70
100
AcDbEntity
  8
Visible
100
AcDbEllipse
 10
680.4243009999999
 20
225.511814
 30
0.0
 11
-2.99999999999997
 21
0.0000000179674325
 31
0.0
210
0.0
220
-0.0000000000000002
230
-1.0
 40
0.99992188415438
 41
1.570796320806219
 42
3.141592647600179
  0
LINE
  5
5F5
330
70
100
AcDbEntity
  8
Visible
100
AcDbLine
 10
683.4243009999998
 20
225.511814
 30
0.0
 11
683.4243009999998
 21
225.515564
 31
0.0
210
-1.0
220
0.0000000000000002
230
0.0
  0
ELLIPSE
  5
5F6
330
70
100
AcDbEntity
  8
Visible
100
AcDbEllipse
 10
680.4243009999999
 20
225.515564
 30
0.0
 11
-3.000000000000111
 21
0.0000000073004545
 31
0.0
210
0.0
220
0.0000000000000002
230
1.0
 40
0.9999218841543322
 41
3.141592656023466
 42
4.712388982817983
  0
LINE
  5
5F7
330
70
100
AcDbEntity
  8
Visible
100
AcDbLine
 10
656.424301
 20
228.511579
 30
0.0
 11
680.4243009999999
 21
228.511579
 31
0.0
210
-1.0
220
0.0000000000000002
230
0.0
  0
ELLIPSE
  5
5F8
330
70
100
AcDbEntity
  8
Visible
100
AcDbEllipse
 10
656.424301
 20
225.511814
 30
0.0
 11
3.000000000000111
 21
0.000000017594638
 31
0.0
210
0.0
220
-0.0000000000000002
230
-1.0
 40
0.9999218841543322
 41
3.141592659455128
 42
4.712388986249109
  0
LINE
  5
5F9
330
70
100
AcDbEntity
  8
Visible
100
AcDbLine
 10
653.4243009999999
 20
225.511814
 30
0.0
 11
653.4243009999999
 21
213.8052515
 31
0.0
210
-1.0
220
0.0000000000000002
230
0.0
  0
LINE
  5
5FA
330
70
100
AcDbEntity
  8
Visible
100
AcDbLine
 10
663.4243009999998
 20
213.8052515
 30
0.0
 11
663.4243009999998
 21
215.505119
 31
0.0
210
-1.0
220
0.0000000000000002
230
0.0
  0
LINE
  5
5FB
330
70
100
AcDbEntity
  8
Visible
100
AcDbLine
 10
663.4243009999998
 20
215.505119
 30
0.0
 11
673.4243009999999
 21
215.505119
 31
0.0
210
-1.0
220
0.0000000000000002
230
0.0
  0
LINE
  5
5FC
330
70
100
AcDbEntity
  8
Visible
100
AcDbLine
 10
673.4243009999999
 20
215.505119
 30
0.0
 11
673.4243009999999
 21
213.8052515
 31
0.0
210
-1.0
220
0.0000000000000002
230
0.0
  0
LINE
  5
5FD
330
70
100
AcDbEntity
  8
Visible
100
AcDbLine
 10
683.4243009999998
 20
225.511814
 30
0.0
 11
683.4243009999998
 21
213.8052515
 31
0.0
210
-1.0
220
0.0000000000000002
230
0.0
  0
LINE
  5
5FE
330
70
100
AcDbEntity
  8
Visible
100
AcDbLine
 10
663.4243009999998
 20
223.012009
 30
0.0
 11
663.4243009999998
 21
225.011854
 31
0.0
210
-1.0
220
0.0000000000000002
230
0.0
  0
LINE
  5
5FF
330
70
100
AcDbEntity
  8
Visible
100
AcDbLine
 10
673.4243009999999
 20
225.011854
 30
0.0
 11
673.4243009999999
 21
223.012009
 31
0.0
210
-1.0
220
0.0000000000000002
230
0.0
  0
LINE
  5
600
330
70
100
AcDbEntity
  8
Visible
100
AcDbLine
 10
673.4243009999999
 20
223.012009
 30
0.0
 11
663.4243009999998
 21
223.012009
 31
0.0
210
-1.0
220
0.0000000000000002
230
0.0
  0
LINE
  5
601
330
70
100
AcDbEntity
  8
Visible
100
AcDbLine
 10
656.424301
 20
228.515329
 30
0.0
 11
680.4243009999999
 21
228.515329
 31
0.0
210
-1.0
220
0.0000000000000002
230
0.0
  0
ELLIPSE
  5
602
330
70
100
AcDbEntity
  8
Visible
100
AcDbEllipse
 10
656.424301
 20
225.515564
 30
0.0
 11
2.99999999999997
 21
0.000000006390583
 31
0.0
210
0.0
220
0.0000000000000002
230
1.0
 40
0.99992188415438
 41
1.570796324664868
 42
3.141592651459431
  0
LINE
  5
603
330
70
100
AcDbEntity
  8
Visible
100
AcDbLine
 10
653.4243009999999
 20
225.515564
 30
0.0
 11
653.4243009999999
 21
225.511814
 31
0.0
210
-1.0
220
0.0000000000000002
230
0.0
  0
LINE
  5
604
330
70
100
AcDbEntity
  8
Visible
100
AcDbLine
 10
663.4243009999998
 20
213.8127515
 30
0.0
 11
673.4243009999999
 21
213.8127515
 31
0.0
210
-1.0
220
0.0000000000000002
230
0.0
  0
LINE
  5
605
330
70
100
AcDbEntity
  8
Visible
100
AcDbLine
 10
673.4243009999999
 20
213.5127515000001
 30
0.0
 11
663.4243009999998
 21
213.5127515000001
 31
0.0
210
-1.0
220
0.0000000000000002
230
0.0
  0
LINE
  5
606
330
70
100
AcDbEntity
  8
Visible
100
AcDbLine
 10
673.4243009999999
 20
213.5127515000001
 30
0.0
 11
673.4243009999999
 21
213.8052515
 31
0.0
210
-1.0
220
0.0000000000000002
230
0.0
  0
LINE
  5
607
330
70
100
AcDbEntity
  8
Visible
100
AcDbLine
 10
673.4243009999999
 20
213.5127515000001
 30
0.0
 11
683.4243009999998
 21
213.5127515000001
 31
0.0
210
-1.0
220
0.0000000000000002
230
0.0
  0
LINE
  5
608
330
70
100
AcDbEntity
  8
Visible
100
AcDbLine
 10
683.4243009999998
 20
213.5127515000001
 30
0.0
 11
683.4243009999998
 21
213.8052515
 31
0.0
210
-1.0
220
0.0000000000000002
230
0.0
  0
LINE
  5
609
330
70
100
AcDbEntity
  8
Visible
100
AcDbLine
 10
663.4243009999998
 20
213.8052515
 30
0.0
 11
663.4243009999998
 21
213.5127515000001
 31
0.0
210
-1.0
220
0.0000000000000002
230
0.0
  0
LINE
  5
60A
330
70
100
AcDbEntity
  8
Visible
100
AcDbLine
 10
653.4243009999999
 20
213.8052515
 30
0.0
 11
653.4243009999999
 21
213.5127515000001
 31
0.0
210
-1.0
220
0.0000000000000002
230
0.0
  0
LINE
  5
60B
330
70
100
AcDbEntity
  8
Visible
100
AcDbLine
 10
653.4243009999999
 20
213.5127515000001
 30
0.0
 11
663.4243009999998
 21
213.5127515000001
 31
0.0
210
-1.0
220
0.0000000000000002
230
0.0
  0
LINE
  5
60C
330
70
100
AcDbEntity
  8
Visible
100
AcDbLine
 10
663.4243009999998
 20
223.0157590000001
 30
0.0
 11
673.4243009999999
 21
223.0157590000001
 31
0.0
210
-1.0
220
0.0000000000000002
230
0.0
  0
ELLIPSE
  5
60D
330
70
100
AcDbEntity
  8
Visible
100
AcDbEllipse
 10
415.424301
 20
210.511814
 30
0.0
 11
-3.000000000000039
 21
0.0000000177791398
 31
0.0
210
0.0
220
-0.0000000000000002
230
-1.0
 40
0.999921884154356
 41
1.570796320869003
 42
3.14159264766295
  0
LINE
  5
60E
330
70
100
AcDbEntity
  8
Visible
100
AcDbLine
 10
418.424301
 20
210.511814
 30
0.0
 11
418.424301
 21
210.515564
 31
0.0
210
-1.0
220
0.0000000000000002
230
0.0
  0
ELLIPSE
  5
60F
330
70
100
AcDbEntity
  8
Visible
100
AcDbEllipse
 10
415.424301
 20
210.515564
 30
0.0
 11
-2.99999999999997
 21
0.000000007033811
 31
0.0
210
0.0
220
0.0000000000000002
230
1.0
 40
0.99992188415438
 41
3.141592655934578
 42
4.71238898272911
  0
LINE
  5
610
330
70
100
AcDbEntity
  8
Visible
100
AcDbLine
 10
391.424301
 20
213.511579
 30
0.0
 11
415.424301
 21
213.511579
 31
0.0
210
-1.0
220
0.0000000000000002
230
0.0
  0
ELLIPSE
  5
611
330
70
100
AcDbEntity
  8
Visible
100
AcDbEllipse
 10
391.424301
 20
210.511814
 30
0.0
 11
3.000000000000042
 21
0.0000000177791398
 31
0.0
210
0.0
220
-0.0000000000000002
230
-1.0
 40
0.9999218841543559
 41
3.141592659516634
 42
4.712388986310606
  0
LINE
  5
612
330
70
100
AcDbEntity
  8
Visible
100
AcDbLine
 10
388.424301
 20
210.511814
 30
0.0
 11
388.424301
 21
198.8052515
 31
0.0
210
-1.0
220
0.0000000000000002
230
0.0
  0
LINE
  5
613
330
70
100
AcDbEntity
  8
Visible
100
AcDbLine
 10
398.424301
 20
198.8052515
 30
0.0
 11
398.424301
 21
200.505119
 31
0.0
210
-1.0
220
0.0000000000000002
230
0.0
  0
LINE
  5
614
330
70
100
AcDbEntity
  8
Visible
100
AcDbLine
 10
398.424301
 20
200.505119
 30
0.0
 11
408.4243009999999
 21
200.505119
 31
0.0
210
-1.0
220
0.0000000000000002
230
0.0
  0
LINE
  5
615
330
70
100
AcDbEntity
  8
Visible
100
AcDbLine
 10
408.4243009999999
 20
200.505119
 30
0.0
 11
408.4243009999999
 21
198.8052515
 31
0.0
210
-1.0
220
0.0000000000000002
230
0.0
  0
LINE
  5
616
330
70
100
AcDbEntity
  8
Visible
100
AcDbLine
 10
418.424301
 20
210.511814
 30
0.0
 11
418.424301
 21
198.8052515
 31
0.0
210
-1.0
220
0.0000000000000002
230
0.0
  0
LINE
  5
617
330
70
100
AcDbEntity
  8
Visible
100
AcDbLine
 10
398.424301
 20
208.012009
 30
0.0
 11
398.424301
 21
210.011854
 31
0.0
210
-1.0
220
0.0000000000000002
230
0.0
  0
LINE
  5
618
330
70
100
AcDbEntity
  8
Visible
100
AcDbLine
 10
408.4243009999999
 20
210.011854
 30
0.0
 11
408.4243009999999
 21
208.012009
 31
0.0
210
-1.0
220
0.0000000000000002
230
0.0
  0
LINE
  5
619
330
70
100
AcDbEntity
  8
Visible
100
AcDbLine
 10
408.4243009999999
 20
208.012009
 30
0.0
 11
398.424301
 21
208.012009
 31
0.0
210
-1.0
220
0.0000000000000002
230
0.0
  0
LINE
  5
61A
330
70
100
AcDbEntity
  8
Visible
100
AcDbLine
 10
391.424301
 20
213.515329
 30
0.0
 11
415.424301
 21
213.515329
 31
0.0
210
-1.0
220
0.0000000000000002
230
0.0
  0
LINE
  5
61B
330
70
100
AcDbEntity
  8
Visible
100
AcDbLine
 10
408.4243009999999
 20
208.2375115
 30
0.0
 11
398.424301
 21
208.2375115
 31
0.0
210
-1.0
220
0.0000000000000002
230
0.0
  0
ELLIPSE
  5
61C
330
70
100
AcDbEntity
  8
Visible
100
AcDbEllipse
 10
391.424301
 20
210.515564
 30
0.0
 11
3.000000000000039
 21
0.0000000074887472
 31
0.0
210
0.0
220
0.0000000000000002
230
1.0
 40
0.999921884154356
 41
1.570796324298841
 42
3.141592651093348
  0
LINE
  5
61D
330
70
100
AcDbEntity
  8
Visible
100
AcDbLine
 10
388.424301
 20
210.515564
 30
0.0
 11
388.424301
 21
210.511814
 31
0.0
210
-1.0
220
0.0000000000000002
230
0.0
  0
LINE
  5
61E
330
70
100
AcDbEntity
  8
Visible
100
AcDbLine
 10
398.424301
 20
198.8127515
 30
0.0
 11
408.4243009999999
 21
198.8127515
 31
0.0
210
-1.0
220
0.0000000000000002
230
0.0
  0
LINE
  5
61F
330
70
100
AcDbEntity
  8
Visible
100
AcDbLine
 10
408.4243009999999
 20
198.5127515
 30
0.0
 11
398.424301
 21
198.5127515
 31
0.0
210
-1.0
220
0.0000000000000002
230
0.0
  0
LINE
  5
620
330
70
100
AcDbEntity
  8
Visible
100
AcDbLine
 10
408.4243009999999
 20
198.5127515
 30
0.0
 11
408.4243009999999
 21
198.8052515
 31
0.0
210
-1.0
220
0.0000000000000002
230
0.0
  0
LINE
  5
621
330
70
100
AcDbEntity
  8
Visible
100
AcDbLine
 10
408.4243009999999
 20
198.5127515
 30
0.0
 11
418.424301
 21
198.5127515
 31
0.0
210
-1.0
220
0.0000000000000002
230
0.0
  0
LINE
  5
622
330
70
100
AcDbEntity
  8
Visible
100
AcDbLine
 10
418.424301
 20
198.5127515
 30
0.0
 11
418.424301
 21
198.8052515
 31
0.0
210
-1.0
220
0.0000000000000002
230
0.0
  0
LINE
  5
623
330
70
100
AcDbEntity
  8
Visible
100
AcDbLine
 10
398.424301
 20
198.8052515
 30
0.0
 11
398.424301
 21
198.5127515
 31
0.0
210
-1.0
220
0.0000000000000002
230
0.0
  0
LINE
  5
624
330
70
100
AcDbEntity
  8
Visible
100
AcDbLine
 10
388.424301
 20
198.8052515
 30
0.0
 11
388.424301
 21
198.5127515
 31
0.0
210
-1.0
220
0.0000000000000002
230
0.0
  0
LINE
  5
625
330
70
100
AcDbEntity
  8
Visible
100
AcDbLine
 10
388.424301
 20
198.5127515
 30
0.0
 11
398.424301
 21
198.5127515
 31
0.0
210
-1.0
220
0.0000000000000002
230
0.0
  0
LINE
  5
626
330
70
100
AcDbEntity
  8
Visible
100
AcDbLine
 10
408.4243009999999
 20
208.6839964999999
 30
0.0
 11
398.424301
 21
208.6839964999999
 31
0.0
210
-1.0
220
0.0000000000000002
230
0.0
  0
LINE
  5
627
330
70
100
AcDbEntity
  8
Visible
100
AcDbLine
 10
398.424301
 20
208.241264
 30
0.0
 11
408.4243009999999
 21
208.241264
 31
0.0
210
-1.0
220
0.0000000000000002
230
0.0
  0
LINE
  5
628
330
70
100
AcDbEntity
  8
Visible
100
AcDbLine
 10
398.424301
 20
208.015759
 30
0.0
 11
408.4243009999999
 21
208.015759
 31
0.0
210
-1.0
220
0.0000000000000002
230
0.0
  0
LINE
  5
629
330
70
100
AcDbEntity
  8
Visible
100
AcDbLine
 10
53.42430100000001
 20
240.763199
 30
0.0
 11
53.42430100000001
 21
241.581144
 31
0.0
210
-1.0
220
0.0000000000000002
230
0.0
  0
LINE
  5
62A
330
70
100
AcDbEntity
  8
Visible
100
AcDbLine
 10
53.42430100000001
 20
241.682594
 30
0.0
 11
53.42430100000001
 21
241.581144
 31
0.0
210
-1.0
220
0.0000000000000002
230
0.0
  0
LINE
  5
62B
330
70
100
AcDbEntity
  8
Visible
100
AcDbLine
 10
53.42430100000001
 20
242.009774
 30
0.0
 11
53.42430100000001
 21
241.682594
 31
0.0
210
-1.0
220
0.0000000000000002
230
0.0
  0
LINE
  5
62C
330
70
100
AcDbEntity
  8
Visible
100
AcDbLine
 10
53.42430100000001
 20
242.009774
 30
0.0
 11
53.42430100000001
 21
242.2097740000001
 31
0.0
210
-1.0
220
0.0000000000000002
230
0.0
  0
LINE
  5
62D
330
70
100
AcDbEntity
  8
Visible
100
AcDbLine
 10
53.42430100000001
 20
245.509774
 30
0.0
 11
53.42430100000001
 21
242.2097740000001
 31
0.0
210
-1.0
220
0.0000000000000002
230
0.0
  0
LINE
  5
62E
330
70
100
AcDbEntity
  8
Visible
100
AcDbLine
 10
53.42430100000001
 20
245.509774
 30
0.0
 11
53.42430100000001
 21
246.009774
 31
0.0
210
-1.0
220
0.0000000000000002
230
0.0
  0
LINE
  5
62F
330
70
100
AcDbEntity
  8
Visible
100
AcDbLine
 10
753.4243009999999
 20
246.009774
 30
0.0
 11
53.42430100000001
 21
246.009774
 31
0.0
210
-1.0
220
0.0000000000000002
230
0.0
  0
LINE
  5
630
330
70
100
AcDbEntity
  8
Visible
100
AcDbLine
 10
753.4243009999999
 20
245.509774
 30
0.0
 11
753.4243009999999
 21
246.009774
 31
0.0
210
-1.0
220
0.0000000000000002
230
0.0
  0
LINE
  5
631
330
70
100
AcDbEntity
  8
Visible
100
AcDbLine
 10
753.4243009999999
 20
245.509774
 30
0.0
 11
753.4243009999999
 21
242.2097740000001
 31
0.0
210
-1.0
220
0.0000000000000002
230
0.0
  0
LINE
  5
632
330
70
100
AcDbEntity
  8
Visible
100
AcDbLine
 10
753.4243009999999
 20
242.009774
 30
0.0
 11
53.42430100000001
 21
242.009774
 31
0.0
210
-1.0
220
0.0000000000000002
230
0.0
  0
LINE
  5
633
330
70
100
AcDbEntity
  8
Visible
100
AcDbLine
 10
753.4243009999999
 20
242.009774
 30
0.0
 11
753.4243009999999
 21
242.2097740000001
 31
0.0
210
-1.0
220
0.0000000000000002
230
0.0
  0
LINE
  5
634
330
70
100
AcDbEntity
  8
Visible
100
AcDbLine
 10
753.4243009999999
 20
242.009774
 30
0.0
 11
753.4243009999999
 21
241.682594
 31
0.0
210
-1.0
220
0.0000000000000002
230
0.0
  0
LINE
  5
635
330
70
100
AcDbEntity
  8
Visible
100
AcDbLine
 10
753.4243009999999
 20
240.763199
 30
0.0
 11
753.4243009999999
 21
241.581144
 31
0.0
210
-1.0
220
0.0000000000000002
230
0.0
  0
LINE
  5
636
330
70
100
AcDbEntity
  8
Visible
100
AcDbLine
 10
753.4243009999999
 20
241.682594
 30
0.0
 11
753.4243009999999
 21
241.581144
 31
0.0
210
-1.0
220
0.0000000000000002
230
0.0
  0
LINE
  5
637
330
70
100
AcDbEntity
  8
Visible
100
AcDbLine
 10
53.42430100000001
 20
240.763199
 30
0.0
 11
753.4243009999999
 21
240.763199
 31
0.0
210
-1.0
220
0.0000000000000002
230
0.0
  0
LINE
  5
638
330
70
100
AcDbEntity
  8
Visible
100
AcDbLine
 10
53.42430100000001
 20
232.009774
 30
0.0
 11
753.4243009999999
 21
232.009774
 31
0.0
210
-1.0
220
0.0000000000000002
230
0.0
  0
LINE
  5
639
330
70
100
AcDbEntity
  8
Visible
100
AcDbLine
 10
53.42430100000001
 20
232.009774
 30
0.0
 11
53.42430100000001
 21
231.809774
 31
0.0
210
-1.0
220
0.0000000000000002
230
0.0
  0
LINE
  5
63A
330
70
100
AcDbEntity
  8
Visible
100
AcDbLine
 10
753.4243009999999
 20
231.809774
 30
0.0
 11
753.4243009999999
 21
232.009774
 31
0.0
210
-1.0
220
0.0000000000000002
230
0.0
  0
LINE
  5
63B
330
70
100
AcDbEntity
  8
Visible
100
AcDbLine
 10
53.42430100000001
 20
230.2097740000001
 30
0.0
 11
53.42430100000001
 21
231.809774
 31
0.0
210
-1.0
220
0.0000000000000002
230
0.0
  0
LINE
  5
63C
330
70
100
AcDbEntity
  8
Visible
100
AcDbLine
 10
53.42430100000001
 20
230.2097740000001
 30
0.0
 11
753.4243009999999
 21
230.2097740000001
 31
0.0
210
-1.0
220
0.0000000000000002
230
0.0
  0
LINE
  5
63D
330
70
100
AcDbEntity
  8
Visible
100
AcDbLine
 10
753.4243009999999
 20
231.809774
 30
0.0
 11
753.4243009999999
 21
230.2097740000001
 31
0.0
210
-1.0
220
0.0000000000000002
230
0.0
  0
LINE
  5
63E
330
70
100
AcDbEntity
  8
Visible
100
AcDbLine
 10
53.42430100000001
 20
230.2097740000001
 30
0.0
 11
53.42430100000001
 21
229.0097740000001
 31
0.0
210
-1.0
220
0.0000000000000002
230
0.0
  0
LINE
  5
63F
330
70
100
AcDbEntity
  8
Visible
100
AcDbLine
 10
753.4243009999999
 20
230.2097740000001
 30
0.0
 11
753.4243009999999
 21
229.0097740000001
 31
0.0
210
-1.0
220
0.0000000000000002
230
0.0
  0
LINE
  5
640
330
70
100
AcDbEntity
  8
Visible
100
AcDbLine
 10
53.42430100000001
 20
229.0097740000001
 30
0.0
 11
753.4243009999999
 21
229.0097740000001
 31
0.0
210
-1.0
220
0.0000000000000002
230
0.0
  0
LINE
  5
641
330
70
100
AcDbEntity
  8
Visible
100
AcDbLine
 10
53.42430100000001
 20
225.977364
 30
0.0
 11
53.42430100000001
 21
229.0097740000001
 31
0.0
210
-1.0
220
0.0000000000000002
230
0.0
  0
LINE
  5
642
330
70
100
AcDbEntity
  8
Visible
100
AcDbLine
 10
53.42430100000001
 20
225.977364
 30
0.0
 11
123.4600635
 21
225.977364
 31
0.0
210
-1.0
220
0.0000000000000002
230
0.0
  0
LINE
  5
643
330
70
100
AcDbEntity
  8
Visible
100
AcDbLine
 10
153.3885385
 20
225.977364
 30
0.0
 11
653.4600634999999
 21
225.977364
 31
0.0
210
-1.0
220
0.0000000000000002
230
0.0
  0
LINE
  5
644
330
70
100
AcDbEntity
  8
Visible
100
AcDbLine
 10
683.3885384999998
 20
225.977364
 30
0.0
 11
753.4243009999999
 21
225.977364
 31
0.0
210
-1.0
220
0.0000000000000002
230
0.0
  0
LINE
  5
645
330
70
100
AcDbEntity
  8
Visible
100
AcDbLine
 10
753.4243009999999
 20
229.0097740000001
 30
0.0
 11
753.4243009999999
 21
225.977364
 31
0.0
210
-1.0
220
0.0000000000000002
230
0.0
  0
LINE
  5
646
330
70
100
AcDbEntity
  8
Visible
100
AcDbLine
 10
53.42430100000001
 20
225.977364
 30
0.0
 11
53.42430100000001
 21
222.977364
 31
0.0
210
-1.0
220
0.0000000000000002
230
0.0
  0
LINE
  5
647
330
70
100
AcDbEntity
  8
Visible
100
AcDbLine
 10
753.4243009999999
 20
225.977364
 30
0.0
 11
753.4243009999999
 21
222.977364
 31
0.0
210
-1.0
220
0.0000000000000002
230
0.0
  0
LINE
  5
648
330
70
100
AcDbEntity
  8
Visible
100
AcDbLine
 10
53.42430100000001
 20
222.977364
 30
0.0
 11
123.424301
 21
222.977364
 31
0.0
210
-1.0
220
0.0000000000000002
230
0.0
  0
LINE
  5
649
330
70
100
AcDbEntity
  8
Visible
100
AcDbLine
 10
153.424301
 20
222.977364
 30
0.0
 11
653.4243009999999
 21
222.977364
 31
0.0
210
-1.0
220
0.0000000000000002
230
0.0
  0
LINE
  5
64A
330
70
100
AcDbEntity
  8
Visible
100
AcDbLine
 10
683.4243009999998
 20
222.977364
 30
0.0
 11
753.4243009999999
 21
222.977364
 31
0.0
210
-1.0
220
0.0000000000000002
230
0.0
  0
LINE
  5
64B
330
70
100
AcDbEntity
  8
Visible
100
AcDbLine
 10
53.42430100000001
 20
215.3127515
 30
0.0
 11
53.42430100000001
 21
222.977364
 31
0.0
210
-1.0
220
0.0000000000000002
230
0.0
  0
LINE
  5
64C
330
70
100
AcDbEntity
  8
Visible
100
AcDbLine
 10
753.4243009999999
 20
222.977364
 30
0.0
 11
753.4243009999999
 21
215.3127515
 31
0.0
210
-1.0
220
0.0000000000000002
230
0.0
  0
LINE
  5
64D
330
70
100
AcDbEntity
  8
Visible
100
AcDbLine
 10
53.42430100000001
 20
215.3127515
 30
0.0
 11
53.42430100000001
 21
215.1127515
 31
0.0
210
-1.0
220
0.0000000000000002
230
0.0
  0
LINE
  5
64E
330
70
100
AcDbEntity
  8
Visible
100
AcDbLine
 10
53.42430100000001
 20
215.1127515
 30
0.0
 11
123.424301
 21
215.1127515
 31
0.0
210
-1.0
220
0.0000000000000002
230
0.0
  0
LINE
  5
64F
330
70
100
AcDbEntity
  8
Visible
100
AcDbLine
 10
133.424301
 20
215.1127515
 30
0.0
 11
143.424301
 21
215.1127515
 31
0.0
210
-1.0
220
0.0000000000000002
230
0.0
  0
LINE
  5
650
330
70
100
AcDbEntity
  8
Visible
100
AcDbLine
 10
153.424301
 20
215.1127515
 30
0.0
 11
653.4243009999999
 21
215.1127515
 31
0.0
210
-1.0
220
0.0000000000000002
230
0.0
  0
LINE
  5
651
330
70
100
AcDbEntity
  8
Visible
100
AcDbLine
 10
663.4243009999998
 20
215.1127515
 30
0.0
 11
673.4243009999999
 21
215.1127515
 31
0.0
210
-1.0
220
0.0000000000000002
230
0.0
  0
LINE
  5
652
330
70
100
AcDbEntity
  8
Visible
100
AcDbLine
 10
683.4243009999998
 20
215.1127515
 30
0.0
 11
753.4243009999999
 21
215.1127515
 31
0.0
210
-1.0
220
0.0000000000000002
230
0.0
  0
LINE
  5
653
330
70
100
AcDbEntity
  8
Visible
100
AcDbLine
 10
753.4243009999999
 20
215.1127515
 30
0.0
 11
753.4243009999999
 21
215.3127515
 31
0.0
210
-1.0
220
0.0000000000000002
230
0.0
  0
ELLIPSE
  5
654
330
70
100
AcDbEntity
  8
Visible
100
AcDbEllipse
 10
150.424301
 20
309.7874664999999
 30
0.0
 11
3.000000000000004
 21
0.0000000000019088
 31
0.0
210
0.0
220
0.0
230
1.0
 40
0.0124990235516028
 41
-1.570796326784743
 42
-0.0000000000509015
  0
LINE
  5
655
330
70
100
AcDbEntity
  8
Visible
100
AcDbLine
 10
153.424301
 20
309.7874664999999
 30
0.0
 11
153.424301
 21
310.087444
 31
0.0
210
-1.0
220
-0.0000000000000002
230
0.0000000000000001
  0
ELLIPSE
  5
656
330
70
100
AcDbEntity
  8
Visible
100
AcDbEllipse
 10
150.424301
 20
310.087444
 30
0.0
 11
2.99999999999997
 21
0.000000000000316
 31
0.0
210
0.0
220
0.0
230
-1.0
 40
0.0124990235516029
 41
0.0000000000084157
 42
1.570796326785126
  0
LINE
  5
657
330
70
100
AcDbEntity
  8
Visible
100
AcDbLine
 10
126.424301
 20
309.749969
 30
0.0
 11
150.424301
 21
309.749969
 31
0.0
210
-1.0
220
-0.0000000000000002
230
0.0000000000000001
  0
ELLIPSE
  5
658
330
70
100
AcDbEntity
  8
Visible
100
AcDbEllipse
 10
126.424301
 20
309.7874664999999
 30
0.0
 11
-3.000000000000042
 21
0.0000000000018608
 31
0.0
210
0.0
220
0.0
230
1.0
 40
0.0124990235516026
 41
0.0000000000496128
 42
1.570796326783451
  0
LINE
  5
659
330
70
100
AcDbEntity
  8
Visible
100
AcDbLine
 10
126.424301
 20
310.0499465
 30
0.0
 11
150.424301
 21
310.0499465
 31
0.0
210
-1.0
220
-0.0000000000000002
230
0.0000000000000001
  0
ELLIPSE
  5
65A
330
70
100
AcDbEntity
  8
Visible
100
AcDbEllipse
 10
150.424301
 20
328.187444
 30
0.0
 11
3.000000000000042
 21
0.00000000000029
 31
0.0
210
0.0
220
0.0
230
1.0
 40
0.0124990235519816
 41
-0.0000000000077327
 42
1.570796326781513
  0
ELLIPSE
  5
65B
330
70
100
AcDbEntity
  8
Visible
100
AcDbEllipse
 10
150.424301
 20
327.8874665
 30
0.0
 11
-3.000000000000039
 21
0.0000000000008722
 31
0.0
210
0.0
220
0.0
230
-1.0
 40
0.0124990235523605
 41
1.570796326807611
 42
3.141592653566541
  0
LINE
  5
65C
330
70
100
AcDbEntity
  8
Visible
100
AcDbLine
 10
153.424301
 20
327.8874665
 30
0.0
 11
153.424301
 21
328.187444
 31
0.0
210
-1.0
220
-0.0000000000000002
230
0.0000000000000001
  0
LINE
  5
65D
330
70
100
AcDbEntity
  8
Visible
100
AcDbLine
 10
126.424301
 20
327.9249640000001
 30
0.0
 11
150.424301
 21
327.9249640000001
 31
0.0
210
-1.0
220
-0.0000000000000002
230
0.0000000000000001
  0
ELLIPSE
  5
65E
330
70
100
AcDbEntity
  8
Visible
100
AcDbEllipse
 10
126.424301
 20
327.8874665
 30
0.0
 11
3.000000000000004
 21
0.0000000000008227
 31
0.0
210
0.0
220
0.0
230
-1.0
 40
0.0124990235523607
 41
3.141592653611735
 42
4.712388980370671
  0
LINE
  5
65F
330
70
100
AcDbEntity
  8
Visible
100
AcDbLine
 10
123.424301
 20
327.8874665
 30
0.0
 11
123.424301
 21
327.787454
 31
0.0
210
-1.0
220
-0.0000000000000002
230
0.0000000000000001
  0
LINE
  5
660
330
70
100
AcDbEntity
  8
Visible
100
AcDbLine
 10
153.424301
 20
327.8874665
 30
0.0
 11
153.424301
 21
327.787454
 31
0.0
210
-1.0
220
-0.0000000000000002
230
0.0000000000000001
  0
LINE
  5
661
330
70
100
AcDbEntity
  8
Visible
100
AcDbLine
 10
133.424301
 20
327.8839964999999
 30
0.0
 11
143.424301
 21
327.8839964999999
 31
0.0
210
-1.0
220
-0.0000000000000002
230
0.0000000000000001
  0
LINE
  5
662
330
70
100
AcDbEntity
  8
Visible
100
AcDbLine
 10
126.424301
 20
328.2249415
 30
0.0
 11
150.424301
 21
328.2249415
 31
0.0
210
-1.0
220
-0.0000000000000002
230
0.0000000000000001
  0
ELLIPSE
  5
663
330
70
100
AcDbEntity
  8
Visible
100
AcDbEllipse
 10
126.424301
 20
310.087444
 30
0.0
 11
-2.99999999999997
 21
0.000000000000272
 31
0.0
210
0.0
220
0.0
230
-1.0
 40
0.0124990235516029
 41
-1.570796326783966
 42
-0.0000000000072726
  0
LINE
  5
664
330
70
100
AcDbEntity
  8
Visible
100
AcDbLine
 10
123.424301
 20
310.087444
 30
0.0
 11
123.424301
 21
309.7874664999999
 31
0.0
210
-1.0
220
-0.0000000000000002
230
0.0000000000000001
  0
ELLIPSE
  5
665
330
70
100
AcDbEntity
  8
Visible
100
AcDbEllipse
 10
126.424301
 20
328.187444
 30
0.0
 11
-3.000000000000004
 21
0.0000000000003445
 31
0.0
210
0.0
220
0.0
230
1.0
 40
0.0124990235519817
 41
-1.57079632678008
 42
0.0000000000091795
  0
LINE
  5
666
330
70
100
AcDbEntity
  8
Visible
100
AcDbLine
 10
123.424301
 20
328.187444
 30
0.0
 11
123.424301
 21
327.8874665
 31
0.0
210
-1.0
220
-0.0000000000000002
230
0.0000000000000001
  0
LINE
  5
667
330
70
100
AcDbEntity
  8
Visible
100
AcDbLine
 10
143.424301
 20
327.8839964999999
 30
0.0
 11
143.424301
 21
327.787454
 31
0.0
210
-1.0
220
-0.0000000000000002
230
0.0000000000000001
  0
LINE
  5
668
330
70
100
AcDbEntity
  8
Visible
100
AcDbLine
 10
133.424301
 20
327.787454
 30
0.0
 11
133.424301
 21
327.8839964999999
 31
0.0
210
-1.0
220
-0.0000000000000002
230
0.0000000000000001
  0
LINE
  5
669
330
70
100
AcDbEntity
  8
Visible
100
AcDbLine
 10
133.424301
 20
310.093694
 30
0.0
 11
133.424301
 21
310.187454
 31
0.0
210
-1.0
220
-0.0000000000000002
230
0.0000000000000001
  0
LINE
  5
66A
330
70
100
AcDbEntity
  8
Visible
100
AcDbLine
 10
143.424301
 20
310.093694
 30
0.0
 11
143.424301
 21
310.187454
 31
0.0
210
-1.0
220
-0.0000000000000002
230
0.0000000000000001
  0
LINE
  5
66B
330
70
100
AcDbEntity
  8
Visible
100
AcDbLine
 10
143.424301
 20
310.093694
 30
0.0
 11
133.424301
 21
310.093694
 31
0.0
210
-1.0
220
-0.0000000000000002
230
0.0000000000000001
  0
LINE
  5
66C
330
70
100
AcDbEntity
  8
Visible
100
AcDbLine
 10
153.424301
 20
310.187454
 30
0.0
 11
153.424301
 21
310.087444
 31
0.0
210
-1.0
220
-0.0000000000000002
230
0.0000000000000001
  0
LINE
  5
66D
330
70
100
AcDbEntity
  8
Visible
100
AcDbLine
 10
123.424301
 20
310.087444
 30
0.0
 11
123.424301
 21
310.187454
 31
0.0
210
-1.0
220
-0.0000000000000002
230
0.0000000000000001
  0
ELLIPSE
  5
66E
330
70
100
AcDbEntity
  8
Visible
100
AcDbEllipse
 10
680.4243009999999
 20
309.7874664999999
 30
0.0
 11
3.000000000000111
 21
0.000000000001908
 31
0.0
210
0.0
220
0.0
230
1.0
 40
0.0124990235516023
 41
-1.570796326784718
 42
-0.0000000000508837
  0
LINE
  5
66F
330
70
100
AcDbEntity
  8
Visible
100
AcDbLine
 10
683.4243009999998
 20
309.7874664999999
 30
0.0
 11
683.4243009999998
 21
310.087444
 31
0.0
210
-1.0
220
-0.0000000000000002
230
0.0000000000000001
  0
ELLIPSE
  5
670
330
70
100
AcDbEntity
  8
Visible
100
AcDbEllipse
 10
680.4243009999999
 20
310.087444
 30
0.0
 11
2.99999999999997
 21
0.000000000000316
 31
0.0
210
0.0
220
0.0
230
-1.0
 40
0.0124990235516029
 41
0.0000000000084157
 42
1.570796326785091
  0
LINE
  5
671
330
70
100
AcDbEntity
  8
Visible
100
AcDbLine
 10
656.424301
 20
309.749969
 30
0.0
 11
680.4243009999999
 21
309.749969
 31
0.0
210
-1.0
220
-0.0000000000000002
230
0.0000000000000001
  0
ELLIPSE
  5
672
330
70
100
AcDbEntity
  8
Visible
100
AcDbEllipse
 10
656.424301
 20
309.7874664999999
 30
0.0
 11
-2.99999999999997
 21
0.0000000000018588
 31
0.0
210
0.0
220
0.0
230
1.0
 40
0.0124990235516029
 41
0.0000000000495595
 42
1.570796326783439
  0
LINE
  5
673
330
70
100
AcDbEntity
  8
Visible
100
AcDbLine
 10
656.424301
 20
310.0499465
 30
0.0
 11
680.4243009999999
 21
310.0499465
 31
0.0
210
-1.0
220
-0.0000000000000002
230
0.0000000000000001
  0
ELLIPSE
  5
674
330
70
100
AcDbEntity
  8
Visible
100
AcDbEllipse
 10
680.4243009999999
 20
328.187444
 30
0.0
 11
2.99999999999997
 21
0.0000000000002885
 31
0.0
210
0.0
220
0.0
230
1.0
 40
0.0124990235519819
 41
-0.000000000007697
 42
1.570796326781537
  0
ELLIPSE
  5
675
330
70
100
AcDbEntity
  8
Visible
100
AcDbEllipse
 10
680.4243009999999
 20
327.8874665
 30
0.0
 11
-2.99999999999997
 21
0.0000000000008715
 31
0.0
210
0.0
220
0.0
230
-1.0
 40
0.0124990235523608
 41
1.570796326807586
 42
3.141592653566541
  0
LINE
  5
676
330
70
100
AcDbEntity
  8
Visible
100
AcDbLine
 10
683.4243009999998
 20
327.8874665
 30
0.0
 11
683.4243009999998
 21
328.187444
 31
0.0
210
-1.0
220
-0.0000000000000002
230
0.0000000000000001
  0
LINE
  5
677
330
70
100
AcDbEntity
  8
Visible
100
AcDbLine
 10
656.424301
 20
327.9249640000001
 30
0.0
 11
680.4243009999999
 21
327.9249640000001
 31
0.0
210
-1.0
220
-0.0000000000000002
230
0.0000000000000001
  0
ELLIPSE
  5
678
330
70
100
AcDbEntity
  8
Visible
100
AcDbEllipse
 10
656.424301
 20
327.8874665
 30
0.0
 11
2.99999999999997
 21
0.0000000000008235
 31
0.0
210
0.0
220
0.0
230
-1.0
 40
0.0124990235523608
 41
3.141592653611735
 42
4.712388980370671
  0
LINE
  5
679
330
70
100
AcDbEntity
  8
Visible
100
AcDbLine
 10
653.4243009999999
 20
327.8874665
 30
0.0
 11
653.4243009999999
 21
327.787454
 31
0.0
210
-1.0
220
-0.0000000000000002
230
0.0000000000000001
  0
LINE
  5
67A
330
70
100
AcDbEntity
  8
Visible
100
AcDbLine
 10
683.4243009999998
 20
327.8874665
 30
0.0
 11
683.4243009999998
 21
327.787454
 31
0.0
210
-1.0
220
-0.0000000000000002
230
0.0000000000000001
  0
LINE
  5
67B
330
70
100
AcDbEntity
  8
Visible
100
AcDbLine
 10
663.4243009999998
 20
327.8839964999999
 30
0.0
 11
673.4243009999999
 21
327.8839964999999
 31
0.0
210
-1.0
220
-0.0000000000000002
230
0.0000000000000001
  0
LINE
  5
67C
330
70
100
AcDbEntity
  8
Visible
100
AcDbLine
 10
656.424301
 20
328.2249415
 30
0.0
 11
680.4243009999999
 21
328.2249415
 31
0.0
210
-1.0
220
-0.0000000000000002
230
0.0000000000000001
  0
ELLIPSE
  5
67D
330
70
100
AcDbEntity
  8
Visible
100
AcDbEllipse
 10
656.424301
 20
310.087444
 30
0.0
 11
-3.000000000000111
 21
0.000000000000272
 31
0.0
210
0.0
220
0.0
230
-1.0
 40
0.0124990235516023
 41
-1.570796326783955
 42
-0.0000000000072726
  0
LINE
  5
67E
330
70
100
AcDbEntity
  8
Visible
100
AcDbLine
 10
653.4243009999999
 20
310.087444
 30
0.0
 11
653.4243009999999
 21
309.7874664999999
 31
0.0
210
-1.0
220
-0.0000000000000002
230
0.0000000000000001
  0
ELLIPSE
  5
67F
330
70
100
AcDbEntity
  8
Visible
100
AcDbEllipse
 10
656.424301
 20
328.187444
 30
0.0
 11
-2.99999999999997
 21
0.000000000000344
 31
0.0
210
0.0
220
0.0
230
1.0
 40
0.0124990235519819
 41
-1.570796326780067
 42
0.0000000000091618
  0
LINE
  5
680
330
70
100
AcDbEntity
  8
Visible
100
AcDbLine
 10
653.4243009999999
 20
328.187444
 30
0.0
 11
653.4243009999999
 21
327.8874665
 31
0.0
210
-1.0
220
-0.0000000000000002
230
0.0000000000000001
  0
LINE
  5
681
330
70
100
AcDbEntity
  8
Visible
100
AcDbLine
 10
673.4243009999999
 20
327.8839964999999
 30
0.0
 11
673.4243009999999
 21
327.787454
 31
0.0
210
-1.0
220
-0.0000000000000002
230
0.0000000000000001
  0
LINE
  5
682
330
70
100
AcDbEntity
  8
Visible
100
AcDbLine
 10
663.4243009999998
 20
327.787454
 30
0.0
 11
663.4243009999998
 21
327.8839964999999
 31
0.0
210
-1.0
220
-0.0000000000000002
230
0.0000000000000001
  0
LINE
  5
683
330
70
100
AcDbEntity
  8
Visible
100
AcDbLine
 10
663.4243009999998
 20
310.093694
 30
0.0
 11
663.4243009999998
 21
310.187454
 31
0.0
210
-1.0
220
-0.0000000000000002
230
0.0000000000000001
  0
LINE
  5
684
330
70
100
AcDbEntity
  8
Visible
100
AcDbLine
 10
673.4243009999999
 20
310.093694
 30
0.0
 11
673.4243009999999
 21
310.187454
 31
0.0
210
-1.0
220
-0.0000000000000002
230
0.0000000000000001
  0
LINE
  5
685
330
70
100
AcDbEntity
  8
Visible
100
AcDbLine
 10
673.4243009999999
 20
310.093694
 30
0.0
 11
663.4243009999998
 21
310.093694
 31
0.0
210
-1.0
220
-0.0000000000000002
230
0.0000000000000001
  0
LINE
  5
686
330
70
100
AcDbEntity
  8
Visible
100
AcDbLine
 10
683.4243009999998
 20
310.187454
 30
0.0
 11
683.4243009999998
 21
310.087444
 31
0.0
210
-1.0
220
-0.0000000000000002
230
0.0000000000000001
  0
LINE
  5
687
330
70
100
AcDbEntity
  8
Visible
100
AcDbLine
 10
653.4243009999999
 20
310.087444
 30
0.0
 11
653.4243009999999
 21
310.187454
 31
0.0
210
-1.0
220
-0.0000000000000002
230
0.0000000000000001
  0
ELLIPSE
  5
688
330
70
100
AcDbEntity
  8
Visible
100
AcDbEllipse
 10
415.424301
 20
309.7874664999999
 30
0.0
 11
3.000000000000042
 21
0.0000000000007722
 31
0.0
210
0.0
220
0.0
230
1.0
 40
0.0124990235512237
 41
-1.570796326784738
 42
-0.0000000000205944
  0
LINE
  5
689
330
70
100
AcDbEntity
  8
Visible
100
AcDbLine
 10
418.424301
 20
309.7874664999999
 30
0.0
 11
418.424301
 21
310.087444
 31
0.0
210
-1.0
220
-0.0000000000000002
230
0.0000000000000001
  0
ELLIPSE
  5
68A
330
70
100
AcDbEntity
  8
Visible
100
AcDbEllipse
 10
415.424301
 20
310.087444
 30
0.0
 11
2.99999999999997
 21
0.000000000000787
 31
0.0
210
0.0
220
0.0
230
-1.0
 40
0.012499023551224
 41
0.0000000000209757
 42
1.570796326785118
  0
LINE
  5
68B
330
70
100
AcDbEntity
  8
Visible
100
AcDbLine
 10
391.424301
 20
309.749969
 30
0.0
 11
415.424301
 21
309.749969
 31
0.0
210
-1.0
220
-0.0000000000000002
230
0.0000000000000001
  0
ELLIPSE
  5
68C
330
70
100
AcDbEntity
  8
Visible
100
AcDbEllipse
 10
391.424301
 20
309.7874664999999
 30
0.0
 11
-3.000000000000042
 21
0.0000000000007235
 31
0.0
210
0.0
220
0.0
230
1.0
 40
0.0124990235512237
 41
0.0000000000192879
 42
1.570796326783458
  0
LINE
  5
68D
330
70
100
AcDbEntity
  8
Visible
100
AcDbLine
 10
391.424301
 20
310.0499465
 30
0.0
 11
415.424301
 21
310.0499465
 31
0.0
210
-1.0
220
-0.0000000000000002
230
0.0000000000000001
  0
ELLIPSE
  5
68E
330
70
100
AcDbEntity
  8
Visible
100
AcDbEllipse
 10
415.424301
 20
328.187444
 30
0.0
 11
3.000000000000042
 21
0.00000000000029
 31
0.0
210
0.0
220
0.0
230
1.0
 40
0.0124990235519816
 41
-0.0000000000077327
 42
1.570796326781489
  0
ELLIPSE
  5
68F
330
70
100
AcDbEntity
  8
Visible
100
AcDbEllipse
 10
415.424301
 20
327.8874665
 30
0.0
 11
-3.000000000000042
 21
0.000000000001343
 31
0.0
210
0.0
220
0.0
230
-1.0
 40
0.0124990235519816
 41
1.570796326807609
 42
3.141592653553962
  0
LINE
  5
690
330
70
100
AcDbEntity
  8
Visible
100
AcDbLine
 10
418.424301
 20
327.8874665
 30
0.0
 11
418.424301
 21
328.187444
 31
0.0
210
-1.0
220
-0.0000000000000002
230
0.0000000000000001
  0
LINE
  5
691
330
70
100
AcDbEntity
  8
Visible
100
AcDbLine
 10
391.424301
 20
327.9249640000001
 30
0.0
 11
415.424301
 21
327.9249640000001
 31
0.0
210
-1.0
220
-0.0000000000000002
230
0.0000000000000001
  0
ELLIPSE
  5
692
330
70
100
AcDbEntity
  8
Visible
100
AcDbEllipse
 10
391.424301
 20
327.8874665
 30
0.0
 11
3.000000000000042
 21
0.0000000000012938
 31
0.0
210
0.0
220
0.0
230
-1.0
 40
0.0124990235519816
 41
3.141592653624313
 42
4.712388980370673
  0
LINE
  5
693
330
70
100
AcDbEntity
  8
Visible
100
AcDbLine
 10
388.424301
 20
327.8874665
 30
0.0
 11
388.424301
 21
327.787454
 31
0.0
210
-1.0
220
-0.0000000000000002
230
0.0000000000000001
  0
LINE
  5
694
330
70
100
AcDbEntity
  8
Visible
100
AcDbLine
 10
418.424301
 20
327.8874665
 30
0.0
 11
418.424301
 21
327.787454
 31
0.0
210
-1.0
220
-0.0000000000000002
230
0.0000000000000001
  0
LINE
  5
695
330
70
100
AcDbEntity
  8
Visible
100
AcDbLine
 10
398.424301
 20
327.8839964999999
 30
0.0
 11
408.4243009999999
 21
327.8839964999999
 31
0.0
210
-1.0
220
-0.0000000000000002
230
0.0000000000000001
  0
LINE
  5
696
330
70
100
AcDbEntity
  8
Visible
100
AcDbLine
 10
391.424301
 20
328.2249415
 30
0.0
 11
415.424301
 21
328.2249415
 31
0.0
210
-1.0
220
-0.0000000000000002
230
0.0000000000000001
  0
ELLIPSE
  5
697
330
70
100
AcDbEntity
  8
Visible
100
AcDbEllipse
 10
391.424301
 20
310.087444
 30
0.0
 11
-3.000000000000042
 21
0.0000000000007435
 31
0.0
210
0.0
220
0.0
230
-1.0
 40
0.0124990235512237
 41
-1.570796326783956
 42
-0.0000000000198501
  0
LINE
  5
698
330
70
100
AcDbEntity
  8
Visible
100
AcDbLine
 10
388.424301
 20
310.087444
 30
0.0
 11
388.424301
 21
309.7874664999999
 31
0.0
210
-1.0
220
-0.0000000000000002
230
0.0000000000000001
  0
ELLIPSE
  5
699
330
70
100
AcDbEntity
  8
Visible
100
AcDbEllipse
 10
391.424301
 20
328.187444
 30
0.0
 11
-2.99999999999997
 21
0.0000000000003453
 31
0.0
210
0.0
220
0.0
230
1.0
 40
0.0124990235519819
 41
-1.570796326780091
 42
0.0000000000091973
  0
LINE
  5
69A
330
70
100
AcDbEntity
  8
Visible
100
AcDbLine
 10
388.424301
 20
328.187444
 30
0.0
 11
388.424301
 21
327.8874665
 31
0.0
210
-1.0
220
-0.0000000000000002
230
0.0000000000000001
  0
LINE
  5
69B
330
70
100
AcDbEntity
  8
Visible
100
AcDbLine
 10
408.4243009999999
 20
327.8839964999999
 30
0.0
 11
408.4243009999999
 21
327.787454
 31
0.0
210
-1.0
220
-0.0000000000000002
230
0.0000000000000001
  0
LINE
  5
69C
330
70
100
AcDbEntity
  8
Visible
100
AcDbLine
 10
398.424301
 20
327.787454
 30
0.0
 11
398.424301
 21
327.8839964999999
 31
0.0
210
-1.0
220
-0.0000000000000002
230
0.0000000000000001
  0
LINE
  5
69D
330
70
100
AcDbEntity
  8
Visible
100
AcDbLine
 10
398.424301
 20
310.093694
 30
0.0
 11
398.424301
 21
310.187454
 31
0.0
210
-1.0
220
-0.0000000000000002
230
0.0000000000000001
  0
LINE
  5
69E
330
70
100
AcDbEntity
  8
Visible
100
AcDbLine
 10
408.4243009999999
 20
310.093694
 30
0.0
 11
408.4243009999999
 21
310.187454
 31
0.0
210
-1.0
220
-0.0000000000000002
230
0.0000000000000001
  0
LINE
  5
69F
330
70
100
AcDbEntity
  8
Visible
100
AcDbLine
 10
408.4243009999999
 20
310.093694
 30
0.0
 11
398.424301
 21
310.093694
 31
0.0
210
-1.0
220
-0.0000000000000002
230
0.0000000000000001
  0
LINE
  5
6A0
330
70
100
AcDbEntity
  8
Visible
100
AcDbLine
 10
418.424301
 20
310.187454
 30
0.0
 11
418.424301
 21
310.087444
 31
0.0
210
-1.0
220
-0.0000000000000002
230
0.0000000000000001
  0
LINE
  5
6A1
330
70
100
AcDbEntity
  8
Visible
100
AcDbLine
 10
388.424301
 20
310.087444
 30
0.0
 11
388.424301
 21
310.187454
 31
0.0
210
-1.0
220
-0.0000000000000002
230
0.0000000000000001
  0
LINE
  5
6A2
330
70
100
AcDbEntity
  8
Visible
100
AcDbLine
 10
53.42430100000001
 20
310.187454
 30
0.0
 11
53.42430100000001
 21
310.687454
 31
0.0
210
-1.0
220
-0.0000000000000002
230
0.0000000000000001
  0
LINE
  5
6A3
330
70
100
AcDbEntity
  8
Visible
100
AcDbLine
 10
53.42430100000001
 20
327.287454
 30
0.0
 11
53.42430100000001
 21
310.687454
 31
0.0
210
-1.0
220
-0.0000000000000002
230
0.0000000000000001
  0
LINE
  5
6A4
330
70
100
AcDbEntity
  8
Visible
100
AcDbLine
 10
53.42430100000001
 20
327.287454
 30
0.0
 11
53.42430100000001
 21
327.787454
 31
0.0
210
-1.0
220
-0.0000000000000002
230
0.0000000000000001
  0
LINE
  5
6A5
330
70
100
AcDbEntity
  8
Visible
100
AcDbLine
 10
753.4243009999999
 20
327.787454
 30
0.0
 11
53.42430100000001
 21
327.787454
 31
0.0
210
-1.0
220
-0.0000000000000002
230
0.0000000000000001
  0
LINE
  5
6A6
330
70
100
AcDbEntity
  8
Visible
100
AcDbLine
 10
753.4243009999999
 20
327.287454
 30
0.0
 11
753.4243009999999
 21
327.787454
 31
0.0
210
-1.0
220
-0.0000000000000002
230
0.0000000000000001
  0
LINE
  5
6A7
330
70
100
AcDbEntity
  8
Visible
100
AcDbLine
 10
753.4243009999999
 20
327.287454
 30
0.0
 11
753.4243009999999
 21
310.687454
 31
0.0
210
-1.0
220
-0.0000000000000002
230
0.0000000000000001
  0
LINE
  5
6A8
330
70
100
AcDbEntity
  8
Visible
100
AcDbLine
 10
753.4243009999999
 20
310.187454
 30
0.0
 11
53.42430100000001
 21
310.187454
 31
0.0
210
-1.0
220
-0.0000000000000002
230
0.0000000000000001
  0
LINE
  5
6A9
330
70
100
AcDbEntity
  8
Visible
100
AcDbLine
 10
753.4243009999999
 20
310.187454
 30
0.0
 11
753.4243009999999
 21
310.687454
 31
0.0
210
-1.0
220
-0.0000000000000002
230
0.0000000000000001
  0
ELLIPSE
  5
6AA
330
70
100
AcDbEntity
  8
Visible
100
AcDbEllipse
 10
150.424301
 20
107.218659
 30
0.0
 11
-3.000000000000042
 21
0.0000000000014383
 31
0.0
210
0.0
220
0.0000000000000001
230
-1.0
 40
0.0124990235519816
 41
1.57079632680505
 42
3.141592653551406
  0
LINE
  5
6AB
330
70
100
AcDbEntity
  8
Visible
100
AcDbLine
 10
126.424301
 20
107.2561565
 30
0.0
 11
150.424301
 21
107.2561565
 31
0.0
210
-1.0
220
-0.0000000000000002
230
-0.0000000000000001
  0
ELLIPSE
  5
6AC
330
70
100
AcDbEntity
  8
Visible
100
AcDbEllipse
 10
126.424301
 20
107.218659
 30
0.0
 11
3.000000000000042
 21
0.0000000000013898
 31
0.0
210
0.0
220
0.0000000000000001
230
-1.0
 40
0.0124990235519816
 41
3.141592653626871
 42
4.712388980373242
  0
LINE
  5
6AD
330
70
100
AcDbEntity
  8
Visible
100
AcDbLine
 10
123.424301
 20
107.218659
 30
0.0
 11
123.424301
 21
107.0723265
 31
0.0
210
-1.0
220
-0.0000000000000002
230
-0.0000000000000001
  0
LINE
  5
6AE
330
70
100
AcDbEntity
  8
Visible
100
AcDbLine
 10
133.424301
 20
107.0723265
 30
0.0
 11
133.424301
 21
107.093574
 31
0.0
210
-1.0
220
-0.0000000000000002
230
-0.0000000000000001
  0
LINE
  5
6AF
330
70
100
AcDbEntity
  8
Visible
100
AcDbLine
 10
133.424301
 20
107.093574
 30
0.0
 11
143.424301
 21
107.093574
 31
0.0
210
-1.0
220
-0.0000000000000002
230
-0.0000000000000001
  0
LINE
  5
6B0
330
70
100
AcDbEntity
  8
Visible
100
AcDbLine
 10
143.424301
 20
107.093574
 30
0.0
 11
143.424301
 21
107.0723265
 31
0.0
210
-1.0
220
-0.0000000000000002
230
-0.0000000000000001
  0
LINE
  5
6B1
330
70
100
AcDbEntity
  8
Visible
100
AcDbLine
 10
153.424301
 20
107.218659
 30
0.0
 11
153.424301
 21
107.0723265
 31
0.0
210
-1.0
220
-0.0000000000000002
230
-0.0000000000000001
  0
LINE
  5
6B2
330
70
100
AcDbEntity
  8
Visible
100
AcDbLine
 10
133.424301
 20
107.1874115
 30
0.0
 11
133.424301
 21
107.212409
 31
0.0
210
-1.0
220
-0.0000000000000002
230
-0.0000000000000001
  0
LINE
  5
6B3
330
70
100
AcDbEntity
  8
Visible
100
AcDbLine
 10
143.424301
 20
107.212409
 30
0.0
 11
143.424301
 21
107.1874115
 31
0.0
210
-1.0
220
-0.0000000000000002
230
-0.0000000000000001
  0
LINE
  5
6B4
330
70
100
AcDbEntity
  8
Visible
100
AcDbLine
 10
143.424301
 20
107.1874115
 30
0.0
 11
133.424301
 21
107.1874115
 31
0.0
210
-1.0
220
-0.0000000000000002
230
-0.0000000000000001
  0
ELLIPSE
  5
6B5
330
70
100
AcDbEntity
  8
Visible
100
AcDbEllipse
 10
150.424301
 20
88.8186815
 30
0.0
 11
3.000000000000004
 21
0.0000000000001808
 31
0.0
210
0.0
220
0.0000000000000001
230
-1.0
 40
0.0124990235516028
 41
0.0000000000048095
 42
1.570796326781514
  0
LINE
  5
6B6
330
70
100
AcDbEntity
  8
Visible
100
AcDbLine
 10
126.424301
 20
88.78118399999999
 30
0.0
 11
150.424301
 21
88.78118399999999
 31
0.0
210
-1.0
220
-0.0000000000000002
230
-0.0000000000000001
  0
ELLIPSE
  5
6B7
330
70
100
AcDbEntity
  8
Visible
100
AcDbEllipse
 10
126.424301
 20
88.8186815
 30
0.0
 11
-3.000000000000039
 21
0.0000000000001268
 31
0.0
210
0.0
220
0.0000000000000001
230
-1.0
 40
0.0124990235516026
 41
-1.57079632678007
 42
-0.0000000000034353
  0
LINE
  5
6B8
330
70
100
AcDbEntity
  8
Visible
100
AcDbLine
 10
140.424301
 20
101.4827715
 30
0.0
 11
140.424301
 21
94.55456900000001
 31
0.0
210
-1.0
220
-0.0000000000000002
230
-0.0000000000000001
  0
ARC
  5
6B9
330
70
100
AcDbEntity
  8
Visible
100
AcDbCircle
 10
-138.424301
 20
98.01866899999996
 30
-0.0000000000000134
 40
3.999999999999994
210
0.0
220
0.0000000000000001
230
-1.0
100
AcDbArc
 50
240.0000039999999
 51
300.000004
  0
LINE
  5
6BA
330
70
100
AcDbEntity
  8
Visible
100
AcDbLine
 10
136.424301
 20
94.55456900000001
 30
0.0
 11
136.424301
 21
101.4827715
 31
0.0
210
-1.0
220
-0.0000000000000002
230
-0.0000000000000001
  0
ARC
  5
6BB
330
70
100
AcDbEntity
  8
Visible
100
AcDbCircle
 10
-138.424301
 20
98.01866899999996
 30
-0.0000000000000134
 40
4.00000000000001
210
0.0
220
0.0000000000000001
230
-1.0
100
AcDbArc
 50
59.99999599999999
 51
119.9999960000001
  0
LINE
  5
6BC
330
70
100
AcDbEntity
  8
Visible
100
AcDbLine
 10
143.424301
 20
90.96507650000001
 30
0.0
 11
133.424301
 21
90.96507650000001
 31
0.0
210
-1.0
220
-0.0000000000000002
230
-0.0000000000000001
  0
LINE
  5
6BD
330
70
100
AcDbEntity
  8
Visible
100
AcDbLine
 10
133.424301
 20
90.96882649999997
 30
0.0
 11
143.424301
 21
90.96882649999997
 31
0.0
210
-1.0
220
-0.0000000000000002
230
-0.0000000000000001
  0
LINE
  5
6BE
330
70
100
AcDbEntity
  8
Visible
100
AcDbLine
 10
133.424301
 20
89.26119400000002
 30
0.0
 11
133.424301
 21
88.965014
 31
0.0
210
-1.0
220
-0.0000000000000002
230
-0.0000000000000001
  0
LINE
  5
6BF
330
70
100
AcDbEntity
  8
Visible
100
AcDbLine
 10
123.424301
 20
89.26119400000002
 30
0.0
 11
123.424301
 21
88.965014
 31
0.0
210
-1.0
220
-0.0000000000000002
230
-0.0000000000000001
  0
LINE
  5
6C0
330
70
100
AcDbEntity
  8
Visible
100
AcDbLine
 10
143.424301
 20
88.965014
 30
0.0
 11
143.424301
 21
89.26119400000002
 31
0.0
210
-1.0
220
-0.0000000000000002
230
-0.0000000000000001
  0
LINE
  5
6C1
330
70
100
AcDbEntity
  8
Visible
100
AcDbLine
 10
153.424301
 20
88.965014
 30
0.0
 11
153.424301
 21
89.26119400000002
 31
0.0
210
-1.0
220
-0.0000000000000002
230
-0.0000000000000001
  0
LINE
  5
6C2
330
70
100
AcDbEntity
  8
Visible
100
AcDbLine
 10
143.424301
 20
88.94376649999998
 30
0.0
 11
133.424301
 21
88.94376649999998
 31
0.0
210
-1.0
220
-0.0000000000000002
230
-0.0000000000000001
  0
LINE
  5
6C3
330
70
100
AcDbEntity
  8
Visible
100
AcDbLine
 10
143.424301
 20
88.965014
 30
0.0
 11
143.424301
 21
88.94376649999998
 31
0.0
210
-1.0
220
-0.0000000000000002
230
-0.0000000000000001
  0
LINE
  5
6C4
330
70
100
AcDbEntity
  8
Visible
100
AcDbLine
 10
143.424301
 20
90.96882649999997
 30
0.0
 11
143.424301
 21
89.26119400000002
 31
0.0
210
-1.0
220
-0.0000000000000002
230
-0.0000000000000001
  0
LINE
  5
6C5
330
70
100
AcDbEntity
  8
Visible
100
AcDbLine
 10
133.424301
 20
88.94376649999998
 30
0.0
 11
133.424301
 21
88.965014
 31
0.0
210
-1.0
220
-0.0000000000000002
230
-0.0000000000000001
  0
LINE
  5
6C6
330
70
100
AcDbEntity
  8
Visible
100
AcDbLine
 10
133.424301
 20
89.26119400000002
 30
0.0
 11
133.424301
 21
90.96882649999997
 31
0.0
210
-1.0
220
-0.0000000000000002
230
-0.0000000000000001
  0
LINE
  5
6C7
330
70
100
AcDbEntity
  8
Visible
100
AcDbLine
 10
133.424301
 20
104.7722414999999
 30
0.0
 11
143.424301
 21
104.7722414999999
 31
0.0
210
-1.0
220
-0.0000000000000002
230
-0.0000000000000001
  0
LINE
  5
6C8
330
70
100
AcDbEntity
  8
Visible
100
AcDbLine
 10
143.424301
 20
104.7684915
 30
0.0
 11
133.424301
 21
104.7684915
 31
0.0
210
-1.0
220
-0.0000000000000002
230
-0.0000000000000001
  0
LINE
  5
6C9
330
70
100
AcDbEntity
  8
Visible
100
AcDbLine
 10
143.424301
 20
106.7761465
 30
0.0
 11
143.424301
 21
107.0723265
 31
0.0
210
-1.0
220
-0.0000000000000002
230
-0.0000000000000001
  0
LINE
  5
6CA
330
70
100
AcDbEntity
  8
Visible
100
AcDbLine
 10
153.424301
 20
106.7761465
 30
0.0
 11
153.424301
 21
107.0723265
 31
0.0
210
-1.0
220
-0.0000000000000002
230
-0.0000000000000001
  0
LINE
  5
6CB
330
70
100
AcDbEntity
  8
Visible
100
AcDbLine
 10
133.424301
 20
107.0723265
 30
0.0
 11
133.424301
 21
106.7761465
 31
0.0
210
-1.0
220
-0.0000000000000002
230
-0.0000000000000001
  0
LINE
  5
6CC
330
70
100
AcDbEntity
  8
Visible
100
AcDbLine
 10
123.424301
 20
107.0723265
 30
0.0
 11
123.424301
 21
106.7761465
 31
0.0
210
-1.0
220
-0.0000000000000002
230
-0.0000000000000001
  0
LINE
  5
6CD
330
70
100
AcDbEntity
  8
Visible
100
AcDbLine
 10
143.424301
 20
106.7761465
 30
0.0
 11
143.424301
 21
104.7684915
 31
0.0
210
-1.0
220
-0.0000000000000002
230
-0.0000000000000001
  0
LINE
  5
6CE
330
70
100
AcDbEntity
  8
Visible
100
AcDbLine
 10
133.424301
 20
104.7684915
 30
0.0
 11
133.424301
 21
106.7761465
 31
0.0
210
-1.0
220
-0.0000000000000002
230
-0.0000000000000001
  0
LINE
  5
6CF
330
70
100
AcDbEntity
  8
Visible
100
AcDbLine
 10
133.424301
 20
88.82215150000002
 30
0.0
 11
133.424301
 21
88.84706399999998
 31
0.0
210
-1.0
220
-0.0000000000000002
230
-0.0000000000000001
  0
LINE
  5
6D0
330
70
100
AcDbEntity
  8
Visible
100
AcDbLine
 10
133.424301
 20
88.84706399999998
 30
0.0
 11
143.424301
 21
88.84706399999998
 31
0.0
210
-1.0
220
-0.0000000000000002
230
-0.0000000000000001
  0
LINE
  5
6D1
330
70
100
AcDbEntity
  8
Visible
100
AcDbLine
 10
143.424301
 20
88.84706399999998
 30
0.0
 11
143.424301
 21
88.82215150000002
 31
0.0
210
-1.0
220
-0.0000000000000002
230
-0.0000000000000001
  0
LINE
  5
6D2
330
70
100
AcDbEntity
  8
Visible
100
AcDbLine
 10
153.424301
 20
88.965014
 30
0.0
 11
153.424301
 21
88.8186815
 31
0.0
210
-1.0
220
-0.0000000000000002
230
-0.0000000000000001
  0
LINE
  5
6D3
330
70
100
AcDbEntity
  8
Visible
100
AcDbLine
 10
123.424301
 20
88.8186815
 30
0.0
 11
123.424301
 21
88.965014
 31
0.0
210
-1.0
220
-0.0000000000000002
230
-0.0000000000000001
  0
LINE
  5
6D4
330
70
100
AcDbEntity
  8
Visible
100
AcDbLine
 10
153.424301
 20
106.7761465
 30
0.0
 11
153.424301
 21
89.26119400000002
 31
0.0
210
-1.0
220
-0.0000000000000002
230
-0.0000000000000001
  0
LINE
  5
6D5
330
70
100
AcDbEntity
  8
Visible
100
AcDbLine
 10
123.424301
 20
89.26119400000002
 30
0.0
 11
123.424301
 21
106.7761465
 31
0.0
210
-1.0
220
-0.0000000000000002
230
-0.0000000000000001
  0
ELLIPSE
  5
6D6
330
70
100
AcDbEntity
  8
Visible
100
AcDbEllipse
 10
680.4243009999999
 20
107.218659
 30
0.0
 11
-3.000000000000111
 21
0.000000000001437
 31
0.0
210
0.0
220
0.0000000000000001
230
-1.0
 40
0.0124990235519813
 41
1.570796326805074
 42
3.141592653551477
  0
LINE
  5
6D7
330
70
100
AcDbEntity
  8
Visible
100
AcDbLine
 10
656.424301
 20
107.2561565
 30
0.0
 11
680.4243009999999
 21
107.2561565
 31
0.0
210
-1.0
220
-0.0000000000000002
230
-0.0000000000000001
  0
ELLIPSE
  5
6D8
330
70
100
AcDbEntity
  8
Visible
100
AcDbEllipse
 10
656.424301
 20
107.218659
 30
0.0
 11
2.99999999999997
 21
0.0000000000013878
 31
0.0
210
0.0
220
0.0000000000000001
230
-1.0
 40
0.0124990235519819
 41
3.141592653626799
 42
4.712388980373231
  0
LINE
  5
6D9
330
70
100
AcDbEntity
  8
Visible
100
AcDbLine
 10
653.4243009999999
 20
107.218659
 30
0.0
 11
653.4243009999999
 21
107.0723265
 31
0.0
210
-1.0
220
-0.0000000000000002
230
-0.0000000000000001
  0
LINE
  5
6DA
330
70
100
AcDbEntity
  8
Visible
100
AcDbLine
 10
663.4243009999998
 20
107.0723265
 30
0.0
 11
663.4243009999998
 21
107.093574
 31
0.0
210
-1.0
220
-0.0000000000000002
230
-0.0000000000000001
  0
LINE
  5
6DB
330
70
100
AcDbEntity
  8
Visible
100
AcDbLine
 10
663.4243009999998
 20
107.093574
 30
0.0
 11
673.4243009999999
 21
107.093574
 31
0.0
210
-1.0
220
-0.0000000000000002
230
-0.0000000000000001
  0
LINE
  5
6DC
330
70
100
AcDbEntity
  8
Visible
100
AcDbLine
 10
673.4243009999999
 20
107.093574
 30
0.0
 11
673.4243009999999
 21
107.0723265
 31
0.0
210
-1.0
220
-0.0000000000000002
230
-0.0000000000000001
  0
LINE
  5
6DD
330
70
100
AcDbEntity
  8
Visible
100
AcDbLine
 10
683.4243009999998
 20
107.218659
 30
0.0
 11
683.4243009999998
 21
107.0723265
 31
0.0
210
-1.0
220
-0.0000000000000002
230
-0.0000000000000001
  0
LINE
  5
6DE
330
70
100
AcDbEntity
  8
Visible
100
AcDbLine
 10
663.4243009999998
 20
107.1874115
 30
0.0
 11
663.4243009999998
 21
107.212409
 31
0.0
210
-1.0
220
-0.0000000000000002
230
-0.0000000000000001
  0
LINE
  5
6DF
330
70
100
AcDbEntity
  8
Visible
100
AcDbLine
 10
673.4243009999999
 20
107.212409
 30
0.0
 11
673.4243009999999
 21
107.1874115
 31
0.0
210
-1.0
220
-0.0000000000000002
230
-0.0000000000000001
  0
LINE
  5
6E0
330
70
100
AcDbEntity
  8
Visible
100
AcDbLine
 10
673.4243009999999
 20
107.1874115
 30
0.0
 11
663.4243009999998
 21
107.1874115
 31
0.0
210
-1.0
220
-0.0000000000000002
230
-0.0000000000000001
  0
ELLIPSE
  5
6E1
330
70
100
AcDbEntity
  8
Visible
100
AcDbEllipse
 10
680.4243009999999
 20
88.8186815
 30
0.0
 11
2.99999999999997
 21
0.0000000000001828
 31
0.0
210
0.0
220
0.0000000000000001
230
-1.0
 40
0.0124990235516029
 41
0.0000000000048628
 42
1.570796326781491
  0
LINE
  5
6E2
330
70
100
AcDbEntity
  8
Visible
100
AcDbLine
 10
656.424301
 20
88.78118399999999
 30
0.0
 11
680.4243009999999
 21
88.78118399999999
 31
0.0
210
-1.0
220
-0.0000000000000002
230
-0.0000000000000001
  0
ELLIPSE
  5
6E3
330
70
100
AcDbEntity
  8
Visible
100
AcDbEllipse
 10
656.424301
 20
88.8186815
 30
0.0
 11
-3.000000000000111
 21
0.0000000000001268
 31
0.0
210
0.0
220
0.0000000000000001
230
-1.0
 40
0.0124990235516023
 41
-1.570796326780023
 42
-0.0000000000034353
  0
LINE
  5
6E4
330
70
100
AcDbEntity
  8
Visible
100
AcDbLine
 10
670.4243009999999
 20
101.4827715
 30
0.0
 11
670.4243009999999
 21
94.55456900000001
 31
0.0
210
-1.0
220
-0.0000000000000002
230
-0.0000000000000001
  0
ARC
  5
6E5
330
70
100
AcDbEntity
  8
Visible
100
AcDbCircle
 10
-668.4243009999999
 20
98.01866899999996
 30
-0.0000000000000134
 40
3.999999999999994
210
0.0
220
0.0000000000000001
230
-1.0
100
AcDbArc
 50
240.0000039999999
 51
300.000004
  0
LINE
  5
6E6
330
70
100
AcDbEntity
  8
Visible
100
AcDbLine
 10
666.4243009999999
 20
94.55456900000001
 30
0.0
 11
666.4243009999999
 21
101.4827715
 31
0.0
210
-1.0
220
-0.0000000000000002
230
-0.0000000000000001
  0
ARC
  5
6E7
330
70
100
AcDbEntity
  8
Visible
100
AcDbCircle
 10
-668.4243009999999
 20
98.01866899999996
 30
-0.0000000000000134
 40
4.00000000000001
210
0.0
220
0.0000000000000001
230
-1.0
100
AcDbArc
 50
59.99999599999999
 51
119.9999960000001
  0
LINE
  5
6E8
330
70
100
AcDbEntity
  8
Visible
100
AcDbLine
 10
673.4243009999999
 20
90.96507650000001
 30
0.0
 11
663.4243009999998
 21
90.96507650000001
 31
0.0
210
-1.0
220
-0.0000000000000002
230
-0.0000000000000001
  0
LINE
  5
6E9
330
70
100
AcDbEntity
  8
Visible
100
AcDbLine
 10
663.4243009999998
 20
90.96882649999997
 30
0.0
 11
673.4243009999999
 21
90.96882649999997
 31
0.0
210
-1.0
220
-0.0000000000000002
230
-0.0000000000000001
  0
LINE
  5
6EA
330
70
100
AcDbEntity
  8
Visible
100
AcDbLine
 10
663.4243009999998
 20
89.26119400000002
 30
0.0
 11
663.4243009999998
 21
88.965014
 31
0.0
210
-1.0
220
-0.0000000000000002
230
-0.0000000000000001
  0
LINE
  5
6EB
330
70
100
AcDbEntity
  8
Visible
100
AcDbLine
 10
653.4243009999999
 20
89.26119400000002
 30
0.0
 11
653.4243009999999
 21
88.965014
 31
0.0
210
-1.0
220
-0.0000000000000002
230
-0.0000000000000001
  0
LINE
  5
6EC
330
70
100
AcDbEntity
  8
Visible
100
AcDbLine
 10
673.4243009999999
 20
88.965014
 30
0.0
 11
673.4243009999999
 21
89.26119400000002
 31
0.0
210
-1.0
220
-0.0000000000000002
230
-0.0000000000000001
  0
LINE
  5
6ED
330
70
100
AcDbEntity
  8
Visible
100
AcDbLine
 10
683.4243009999998
 20
88.965014
 30
0.0
 11
683.4243009999998
 21
89.26119400000002
 31
0.0
210
-1.0
220
-0.0000000000000002
230
-0.0000000000000001
  0
LINE
  5
6EE
330
70
100
AcDbEntity
  8
Visible
100
AcDbLine
 10
673.4243009999999
 20
88.94376649999998
 30
0.0
 11
663.4243009999998
 21
88.94376649999998
 31
0.0
210
-1.0
220
-0.0000000000000002
230
-0.0000000000000001
  0
LINE
  5
6EF
330
70
100
AcDbEntity
  8
Visible
100
AcDbLine
 10
673.4243009999999
 20
88.965014
 30
0.0
 11
673.4243009999999
 21
88.94376649999998
 31
0.0
210
-1.0
220
-0.0000000000000002
230
-0.0000000000000001
  0
LINE
  5
6F0
330
70
100
AcDbEntity
  8
Visible
100
AcDbLine
 10
673.4243009999999
 20
90.96882649999997
 30
0.0
 11
673.4243009999999
 21
89.26119400000002
 31
0.0
210
-1.0
220
-0.0000000000000002
230
-0.0000000000000001
  0
LINE
  5
6F1
330
70
100
AcDbEntity
  8
Visible
100
AcDbLine
 10
663.4243009999998
 20
88.94376649999998
 30
0.0
 11
663.4243009999998
 21
88.965014
 31
0.0
210
-1.0
220
-0.0000000000000002
230
-0.0000000000000001
  0
LINE
  5
6F2
330
70
100
AcDbEntity
  8
Visible
100
AcDbLine
 10
663.4243009999998
 20
89.26119400000002
 30
0.0
 11
663.4243009999998
 21
90.96882649999997
 31
0.0
210
-1.0
220
-0.0000000000000002
230
-0.0000000000000001
  0
LINE
  5
6F3
330
70
100
AcDbEntity
  8
Visible
100
AcDbLine
 10
663.4243009999998
 20
104.7722414999999
 30
0.0
 11
673.4243009999999
 21
104.7722414999999
 31
0.0
210
-1.0
220
-0.0000000000000002
230
-0.0000000000000001
  0
LINE
  5
6F4
330
70
100
AcDbEntity
  8
Visible
100
AcDbLine
 10
673.4243009999999
 20
104.7684915
 30
0.0
 11
663.4243009999998
 21
104.7684915
 31
0.0
210
-1.0
220
-0.0000000000000002
230
-0.0000000000000001
  0
LINE
  5
6F5
330
70
100
AcDbEntity
  8
Visible
100
AcDbLine
 10
673.4243009999999
 20
106.7761465
 30
0.0
 11
673.4243009999999
 21
107.0723265
 31
0.0
210
-1.0
220
-0.0000000000000002
230
-0.0000000000000001
  0
LINE
  5
6F6
330
70
100
AcDbEntity
  8
Visible
100
AcDbLine
 10
683.4243009999998
 20
106.7761465
 30
0.0
 11
683.4243009999998
 21
107.0723265
 31
0.0
210
-1.0
220
-0.0000000000000002
230
-0.0000000000000001
  0
LINE
  5
6F7
330
70
100
AcDbEntity
  8
Visible
100
AcDbLine
 10
663.4243009999998
 20
107.0723265
 30
0.0
 11
663.4243009999998
 21
106.7761465
 31
0.0
210
-1.0
220
-0.0000000000000002
230
-0.0000000000000001
  0
LINE
  5
6F8
330
70
100
AcDbEntity
  8
Visible
100
AcDbLine
 10
653.4243009999999
 20
107.0723265
 30
0.0
 11
653.4243009999999
 21
106.7761465
 31
0.0
210
-1.0
220
-0.0000000000000002
230
-0.0000000000000001
  0
LINE
  5
6F9
330
70
100
AcDbEntity
  8
Visible
100
AcDbLine
 10
673.4243009999999
 20
106.7761465
 30
0.0
 11
673.4243009999999
 21
104.7684915
 31
0.0
210
-1.0
220
-0.0000000000000002
230
-0.0000000000000001
  0
LINE
  5
6FA
330
70
100
AcDbEntity
  8
Visible
100
AcDbLine
 10
663.4243009999998
 20
104.7684915
 30
0.0
 11
663.4243009999998
 21
106.7761465
 31
0.0
210
-1.0
220
-0.0000000000000002
230
-0.0000000000000001
  0
LINE
  5
6FB
330
70
100
AcDbEntity
  8
Visible
100
AcDbLine
 10
663.4243009999998
 20
88.82215150000002
 30
0.0
 11
663.4243009999998
 21
88.84706399999998
 31
0.0
210
-1.0
220
-0.0000000000000002
230
-0.0000000000000001
  0
LINE
  5
6FC
330
70
100
AcDbEntity
  8
Visible
100
AcDbLine
 10
663.4243009999998
 20
88.84706399999998
 30
0.0
 11
673.4243009999999
 21
88.84706399999998
 31
0.0
210
-1.0
220
-0.0000000000000002
230
-0.0000000000000001
  0
LINE
  5
6FD
330
70
100
AcDbEntity
  8
Visible
100
AcDbLine
 10
673.4243009999999
 20
88.84706399999998
 30
0.0
 11
673.4243009999999
 21
88.82215150000002
 31
0.0
210
-1.0
220
-0.0000000000000002
230
-0.0000000000000001
  0
LINE
  5
6FE
330
70
100
AcDbEntity
  8
Visible
100
AcDbLine
 10
683.4243009999998
 20
88.965014
 30
0.0
 11
683.4243009999998
 21
88.8186815
 31
0.0
210
-1.0
220
-0.0000000000000002
230
-0.0000000000000001
  0
LINE
  5
6FF
330
70
100
AcDbEntity
  8
Visible
100
AcDbLine
 10
653.4243009999999
 20
88.8186815
 30
0.0
 11
653.4243009999999
 21
88.965014
 31
0.0
210
-1.0
220
-0.0000000000000002
230
-0.0000000000000001
  0
LINE
  5
700
330
70
100
AcDbEntity
  8
Visible
100
AcDbLine
 10
683.4243009999998
 20
106.7761465
 30
0.0
 11
683.4243009999998
 21
89.26119400000002
 31
0.0
210
-1.0
220
-0.0000000000000002
230
-0.0000000000000001
  0
LINE
  5
701
330
70
100
AcDbEntity
  8
Visible
100
AcDbLine
 10
653.4243009999999
 20
89.26119400000002
 30
0.0
 11
653.4243009999999
 21
106.7761465
 31
0.0
210
-1.0
220
-0.0000000000000002
230
-0.0000000000000001
  0
ELLIPSE
  5
702
330
70
100
AcDbEntity
  8
Visible
100
AcDbEllipse
 10
415.424301
 20
107.218659
 30
0.0
 11
-3.000000000000042
 21
0.0000000000009675
 31
0.0
210
0.0
220
0.0000000000000001
230
-1.0
 40
0.0124990235523605
 41
1.570796326805053
 42
3.141592653563982
  0
LINE
  5
703
330
70
100
AcDbEntity
  8
Visible
100
AcDbLine
 10
391.424301
 20
107.2561565
 30
0.0
 11
415.424301
 21
107.2561565
 31
0.0
210
-1.0
220
-0.0000000000000002
230
-0.0000000000000001
  0
ELLIPSE
  5
704
330
70
100
AcDbEntity
  8
Visible
100
AcDbEllipse
 10
391.424301
 20
107.218659
 30
0.0
 11
3.000000000000042
 21
0.0000000000009187
 31
0.0
210
0.0
220
0.0000000000000001
230
-1.0
 40
0.0124990235523605
 41
3.141592653614293
 42
4.712388980373253
  0
LINE
  5
705
330
70
100
AcDbEntity
  8
Visible
100
AcDbLine
 10
388.424301
 20
107.218659
 30
0.0
 11
388.424301
 21
107.0723265
 31
0.0
210
-1.0
220
-0.0000000000000002
230
-0.0000000000000001
  0
LINE
  5
706
330
70
100
AcDbEntity
  8
Visible
100
AcDbLine
 10
398.424301
 20
107.0723265
 30
0.0
 11
398.424301
 21
107.093574
 31
0.0
210
-1.0
220
-0.0000000000000002
230
-0.0000000000000001
  0
LINE
  5
707
330
70
100
AcDbEntity
  8
Visible
100
AcDbLine
 10
398.424301
 20
107.093574
 30
0.0
 11
408.4243009999999
 21
107.093574
 31
0.0
210
-1.0
220
-0.0000000000000002
230
-0.0000000000000001
  0
LINE
  5
708
330
70
100
AcDbEntity
  8
Visible
100
AcDbLine
 10
408.4243009999999
 20
107.093574
 30
0.0
 11
408.4243009999999
 21
107.0723265
 31
0.0
210
-1.0
220
-0.0000000000000002
230
-0.0000000000000001
  0
LINE
  5
709
330
70
100
AcDbEntity
  8
Visible
100
AcDbLine
 10
418.424301
 20
107.218659
 30
0.0
 11
418.424301
 21
107.0723265
 31
0.0
210
-1.0
220
-0.0000000000000002
230
-0.0000000000000001
  0
LINE
  5
70A
330
70
100
AcDbEntity
  8
Visible
100
AcDbLine
 10
398.424301
 20
107.1874115
 30
0.0
 11
398.424301
 21
107.212409
 31
0.0
210
-1.0
220
-0.0000000000000002
230
-0.0000000000000001
  0
LINE
  5
70B
330
70
100
AcDbEntity
  8
Visible
100
AcDbLine
 10
408.4243009999999
 20
107.212409
 30
0.0
 11
408.4243009999999
 21
107.1874115
 31
0.0
210
-1.0
220
-0.0000000000000002
230
-0.0000000000000001
  0
LINE
  5
70C
330
70
100
AcDbEntity
  8
Visible
100
AcDbLine
 10
408.4243009999999
 20
107.1874115
 30
0.0
 11
398.424301
 21
107.1874115
 31
0.0
210
-1.0
220
-0.0000000000000002
230
-0.0000000000000001
  0
ELLIPSE
  5
70D
330
70
100
AcDbEntity
  8
Visible
100
AcDbEllipse
 10
415.424301
 20
88.8186815
 30
0.0
 11
3.000000000000042
 21
0.0000000000006518
 31
0.0
210
0.0
220
0.0000000000000001
230
-1.0
 40
0.0124990235512237
 41
0.0000000000173692
 42
1.570796326781493
  0
LINE
  5
70E
330
70
100
AcDbEntity
  8
Visible
100
AcDbLine
 10
398.424301
 20
89.2437415
 30
0.0
 11
408.4243009999999
 21
89.2437415
 31
0.0
210
-1.0
220
-0.0000000000000002
230
-0.0000000000000001
  0
LINE
  5
70F
330
70
100
AcDbEntity
  8
Visible
100
AcDbLine
 10
391.424301
 20
88.78118399999999
 30
0.0
 11
415.424301
 21
88.78118399999999
 31
0.0
210
-1.0
220
-0.0000000000000002
230
-0.0000000000000001
  0
ELLIPSE
  5
710
330
70
100
AcDbEntity
  8
Visible
100
AcDbEllipse
 10
391.424301
 20
88.8186815
 30
0.0
 11
-2.99999999999997
 21
0.000000000000597
 31
0.0
210
0.0
220
0.0000000000000001
230
-1.0
 40
0.012499023551224
 41
-1.570796326780095
 42
-0.0000000000159419
  0
LINE
  5
711
330
70
100
AcDbEntity
  8
Visible
100
AcDbLine
 10
405.424301
 20
101.4827715
 30
0.0
 11
405.424301
 21
94.55456900000001
 31
0.0
210
-1.0
220
-0.0000000000000002
230
-0.0000000000000001
  0
ARC
  5
712
330
70
100
AcDbEntity
  8
Visible
100
AcDbCircle
 10
-403.4243009999999
 20
98.01866899999996
 30
-0.0000000000000134
 40
3.999999999999994
210
0.0
220
0.0000000000000001
230
-1.0
100
AcDbArc
 50
240.0000039999999
 51
300.000004
  0
LINE
  5
713
330
70
100
AcDbEntity
  8
Visible
100
AcDbLine
 10
401.424301
 20
94.55456900000001
 30
0.0
 11
401.424301
 21
101.4827715
 31
0.0
210
-1.0
220
-0.0000000000000002
230
-0.0000000000000001
  0
ARC
  5
714
330
70
100
AcDbEntity
  8
Visible
100
AcDbCircle
 10
-403.4243009999999
 20
98.01866899999996
 30
-0.0000000000000134
 40
4.00000000000001
210
0.0
220
0.0000000000000001
230
-1.0
100
AcDbArc
 50
59.99999599999999
 51
119.9999960000001
  0
LINE
  5
715
330
70
100
AcDbEntity
  8
Visible
100
AcDbLine
 10
408.4243009999999
 20
90.96507650000001
 30
0.0
 11
398.424301
 21
90.96507650000001
 31
0.0
210
-1.0
220
-0.0000000000000002
230
-0.0000000000000001
  0
LINE
  5
716
330
70
100
AcDbEntity
  8
Visible
100
AcDbLine
 10
398.424301
 20
90.96882649999997
 30
0.0
 11
408.4243009999999
 21
90.96882649999997
 31
0.0
210
-1.0
220
-0.0000000000000002
230
-0.0000000000000001
  0
LINE
  5
717
330
70
100
AcDbEntity
  8
Visible
100
AcDbLine
 10
398.424301
 20
89.26119400000002
 30
0.0
 11
398.424301
 21
88.965014
 31
0.0
210
-1.0
220
-0.0000000000000002
230
-0.0000000000000001
  0
LINE
  5
718
330
70
100
AcDbEntity
  8
Visible
100
AcDbLine
 10
388.424301
 20
89.26119400000002
 30
0.0
 11
388.424301
 21
88.965014
 31
0.0
210
-1.0
220
-0.0000000000000002
230
-0.0000000000000001
  0
LINE
  5
719
330
70
100
AcDbEntity
  8
Visible
100
AcDbLine
 10
408.4243009999999
 20
88.965014
 30
0.0
 11
408.4243009999999
 21
89.26119400000002
 31
0.0
210
-1.0
220
-0.0000000000000002
230
-0.0000000000000001
  0
LINE
  5
71A
330
70
100
AcDbEntity
  8
Visible
100
AcDbLine
 10
418.424301
 20
88.965014
 30
0.0
 11
418.424301
 21
89.26119400000002
 31
0.0
210
-1.0
220
-0.0000000000000002
230
-0.0000000000000001
  0
LINE
  5
71B
330
70
100
AcDbEntity
  8
Visible
100
AcDbLine
 10
408.4243009999999
 20
88.94376649999998
 30
0.0
 11
398.424301
 21
88.94376649999998
 31
0.0
210
-1.0
220
-0.0000000000000002
230
-0.0000000000000001
  0
LINE
  5
71C
330
70
100
AcDbEntity
  8
Visible
100
AcDbLine
 10
408.4243009999999
 20
88.965014
 30
0.0
 11
408.4243009999999
 21
88.94376649999998
 31
0.0
210
-1.0
220
-0.0000000000000002
230
-0.0000000000000001
  0
LINE
  5
71D
330
70
100
AcDbEntity
  8
Visible
100
AcDbLine
 10
408.4243009999999
 20
90.96882649999997
 30
0.0
 11
408.4243009999999
 21
89.26119400000002
 31
0.0
210
-1.0
220
-0.0000000000000002
230
-0.0000000000000001
  0
LINE
  5
71E
330
70
100
AcDbEntity
  8
Visible
100
AcDbLine
 10
398.424301
 20
88.94376649999998
 30
0.0
 11
398.424301
 21
88.965014
 31
0.0
210
-1.0
220
-0.0000000000000002
230
-0.0000000000000001
  0
LINE
  5
71F
330
70
100
AcDbEntity
  8
Visible
100
AcDbLine
 10
398.424301
 20
89.26119400000002
 30
0.0
 11
398.424301
 21
90.96882649999997
 31
0.0
210
-1.0
220
-0.0000000000000002
230
-0.0000000000000001
  0
LINE
  5
720
330
70
100
AcDbEntity
  8
Visible
100
AcDbLine
 10
398.424301
 20
104.7722414999999
 30
0.0
 11
408.4243009999999
 21
104.7722414999999
 31
0.0
210
-1.0
220
-0.0000000000000002
230
-0.0000000000000001
  0
LINE
  5
721
330
70
100
AcDbEntity
  8
Visible
100
AcDbLine
 10
408.4243009999999
 20
104.7684915
 30
0.0
 11
398.424301
 21
104.7684915
 31
0.0
210
-1.0
220
-0.0000000000000002
230
-0.0000000000000001
  0
LINE
  5
722
330
70
100
AcDbEntity
  8
Visible
100
AcDbLine
 10
408.4243009999999
 20
106.7761465
 30
0.0
 11
408.4243009999999
 21
107.0723265
 31
0.0
210
-1.0
220
-0.0000000000000002
230
-0.0000000000000001
  0
LINE
  5
723
330
70
100
AcDbEntity
  8
Visible
100
AcDbLine
 10
418.424301
 20
106.7761465
 30
0.0
 11
418.424301
 21
107.0723265
 31
0.0
210
-1.0
220
-0.0000000000000002
230
-0.0000000000000001
  0
LINE
  5
724
330
70
100
AcDbEntity
  8
Visible
100
AcDbLine
 10
398.424301
 20
107.0723265
 30
0.0
 11
398.424301
 21
106.7761465
 31
0.0
210
-1.0
220
-0.0000000000000002
230
-0.0000000000000001
  0
LINE
  5
725
330
70
100
AcDbEntity
  8
Visible
100
AcDbLine
 10
388.424301
 20
107.0723265
 30
0.0
 11
388.424301
 21
106.7761465
 31
0.0
210
-1.0
220
-0.0000000000000002
230
-0.0000000000000001
  0
LINE
  5
726
330
70
100
AcDbEntity
  8
Visible
100
AcDbLine
 10
408.4243009999999
 20
106.7761465
 30
0.0
 11
408.4243009999999
 21
104.7684915
 31
0.0
210
-1.0
220
-0.0000000000000002
230
-0.0000000000000001
  0
LINE
  5
727
330
70
100
AcDbEntity
  8
Visible
100
AcDbLine
 10
408.4243009999999
 20
106.793599
 30
0.0
 11
398.424301
 21
106.793599
 31
0.0
210
-1.0
220
-0.0000000000000002
230
-0.0000000000000001
  0
LINE
  5
728
330
70
100
AcDbEntity
  8
Visible
100
AcDbLine
 10
398.424301
 20
104.7684915
 30
0.0
 11
398.424301
 21
106.7761465
 31
0.0
210
-1.0
220
-0.0000000000000002
230
-0.0000000000000001
  0
LINE
  5
729
330
70
100
AcDbEntity
  8
Visible
100
AcDbLine
 10
408.4243009999999
 20
90.64424150000002
 30
0.0
 11
398.424301
 21
90.64424150000002
 31
0.0
210
-1.0
220
-0.0000000000000002
230
-0.0000000000000001
  0
LINE
  5
72A
330
70
100
AcDbEntity
  8
Visible
100
AcDbLine
 10
408.4243009999999
 20
90.8060915
 30
0.0
 11
398.424301
 21
90.8060915
 31
0.0
210
-1.0
220
-0.0000000000000002
230
-0.0000000000000001
  0
LINE
  5
72B
330
70
100
AcDbEntity
  8
Visible
100
AcDbLine
 10
398.424301
 20
88.82215150000002
 30
0.0
 11
398.424301
 21
88.84706399999998
 31
0.0
210
-1.0
220
-0.0000000000000002
230
-0.0000000000000001
  0
LINE
  5
72C
330
70
100
AcDbEntity
  8
Visible
100
AcDbLine
 10
408.4243009999999
 20
105.3903215
 30
0.0
 11
398.424301
 21
105.3903215
 31
0.0
210
-1.0
220
-0.0000000000000002
230
-0.0000000000000001
  0
LINE
  5
72D
330
70
100
AcDbEntity
  8
Visible
100
AcDbLine
 10
408.4243009999999
 20
105.228469
 30
0.0
 11
398.424301
 21
105.228469
 31
0.0
210
-1.0
220
-0.0000000000000002
230
-0.0000000000000001
  0
LINE
  5
72E
330
70
100
AcDbEntity
  8
Visible
100
AcDbLine
 10
398.424301
 20
88.84706399999998
 30
0.0
 11
408.4243009999999
 21
88.84706399999998
 31
0.0
210
-1.0
220
-0.0000000000000002
230
-0.0000000000000001
  0
LINE
  5
72F
330
70
100
AcDbEntity
  8
Visible
100
AcDbLine
 10
408.4243009999999
 20
88.84706399999998
 30
0.0
 11
408.4243009999999
 21
88.82215150000002
 31
0.0
210
-1.0
220
-0.0000000000000002
230
-0.0000000000000001
  0
LINE
  5
730
330
70
100
AcDbEntity
  8
Visible
100
AcDbLine
 10
418.424301
 20
88.965014
 30
0.0
 11
418.424301
 21
88.8186815
 31
0.0
210
-1.0
220
-0.0000000000000002
230
-0.0000000000000001
  0
LINE
  5
731
330
70
100
AcDbEntity
  8
Visible
100
AcDbLine
 10
388.424301
 20
88.8186815
 30
0.0
 11
388.424301
 21
88.965014
 31
0.0
210
-1.0
220
-0.0000000000000002
230
-0.0000000000000001
  0
LINE
  5
732
330
70
100
AcDbEntity
  8
Visible
100
AcDbLine
 10
418.424301
 20
106.7761465
 30
0.0
 11
418.424301
 21
89.26119400000002
 31
0.0
210
-1.0
220
-0.0000000000000002
230
-0.0000000000000001
  0
LINE
  5
733
330
70
100
AcDbEntity
  8
Visible
100
AcDbLine
 10
388.424301
 20
89.26119400000002
 30
0.0
 11
388.424301
 21
106.7761465
 31
0.0
210
-1.0
220
-0.0000000000000002
230
-0.0000000000000001
  0
LINE
  5
734
330
70
100
AcDbEntity
  8
Visible
100
AcDbLine
 10
53.42430100000001
 20
106.818669
 30
0.0
 11
123.424301
 21
106.818669
 31
0.0
210
-1.0
220
-0.0000000000000002
230
-0.0000000000000001
  0
LINE
  5
735
330
70
100
AcDbEntity
  8
Visible
100
AcDbLine
 10
133.424301
 20
106.818669
 30
0.0
 11
143.424301
 21
106.818669
 31
0.0
210
-1.0
220
-0.0000000000000002
230
-0.0000000000000001
  0
LINE
  5
736
330
70
100
AcDbEntity
  8
Visible
100
AcDbLine
 10
153.424301
 20
106.818669
 30
0.0
 11
388.424301
 21
106.818669
 31
0.0
210
-1.0
220
-0.0000000000000002
230
-0.0000000000000001
  0
LINE
  5
737
330
70
100
AcDbEntity
  8
Visible
100
AcDbLine
 10
418.424301
 20
106.818669
 30
0.0
 11
653.4243009999999
 21
106.818669
 31
0.0
210
-1.0
220
-0.0000000000000002
230
-0.0000000000000001
  0
LINE
  5
738
330
70
100
AcDbEntity
  8
Visible
100
AcDbLine
 10
663.4243009999998
 20
106.818669
 30
0.0
 11
673.4243009999999
 21
106.818669
 31
0.0
210
-1.0
220
-0.0000000000000002
230
-0.0000000000000001
  0
LINE
  5
739
330
70
100
AcDbEntity
  8
Visible
100
AcDbLine
 10
683.4243009999998
 20
106.818669
 30
0.0
 11
753.4243009999999
 21
106.818669
 31
0.0
210
-1.0
220
-0.0000000000000002
230
-0.0000000000000001
  0
LINE
  5
73A
330
70
100
AcDbEntity
  8
Visible
100
AcDbLine
 10
53.42430100000001
 20
106.818669
 30
0.0
 11
53.42430100000001
 21
106.618669
 31
0.0
210
-1.0
220
-0.0000000000000002
230
-0.0000000000000001
  0
LINE
  5
73B
330
70
100
AcDbEntity
  8
Visible
100
AcDbLine
 10
753.4243009999999
 20
106.618669
 30
0.0
 11
753.4243009999999
 21
106.818669
 31
0.0
210
-1.0
220
-0.0000000000000002
230
-0.0000000000000001
  0
LINE
  5
73C
330
70
100
AcDbEntity
  8
Visible
100
AcDbLine
 10
53.42430100000001
 20
106.618669
 30
0.0
 11
53.42430100000001
 21
105.1186689999999
 31
0.0
210
-1.0
220
-0.0000000000000002
230
-0.0000000000000001
  0
LINE
  5
73D
330
70
100
AcDbEntity
  8
Visible
100
AcDbLine
 10
753.4243009999999
 20
106.618669
 30
0.0
 11
753.4243009999999
 21
105.1186689999999
 31
0.0
210
-1.0
220
-0.0000000000000002
230
-0.0000000000000001
  0
LINE
  5
73E
330
70
100
AcDbEntity
  8
Visible
100
AcDbLine
 10
53.42430100000001
 20
105.1186689999999
 30
0.0
 11
53.42430100000001
 21
104.818669
 31
0.0
210
-1.0
220
-0.0000000000000002
230
-0.0000000000000001
  0
LINE
  5
73F
330
70
100
AcDbEntity
  8
Visible
100
AcDbLine
 10
53.42430100000001
 20
104.818669
 30
0.0
 11
123.424301
 21
104.818669
 31
0.0
210
-1.0
220
-0.0000000000000002
230
-0.0000000000000001
  0
LINE
  5
740
330
70
100
AcDbEntity
  8
Visible
100
AcDbLine
 10
133.424301
 20
104.818669
 30
0.0
 11
143.424301
 21
104.818669
 31
0.0
210
-1.0
220
-0.0000000000000002
230
-0.0000000000000001
  0
LINE
  5
741
330
70
100
AcDbEntity
  8
Visible
100
AcDbLine
 10
153.424301
 20
104.818669
 30
0.0
 11
388.424301
 21
104.818669
 31
0.0
210
-1.0
220
-0.0000000000000002
230
-0.0000000000000001
  0
LINE
  5
742
330
70
100
AcDbEntity
  8
Visible
100
AcDbLine
 10
398.424301
 20
104.818669
 30
0.0
 11
408.4243009999999
 21
104.818669
 31
0.0
210
-1.0
220
-0.0000000000000002
230
-0.0000000000000001
  0
LINE
  5
743
330
70
100
AcDbEntity
  8
Visible
100
AcDbLine
 10
418.424301
 20
104.818669
 30
0.0
 11
653.4243009999999
 21
104.818669
 31
0.0
210
-1.0
220
-0.0000000000000002
230
-0.0000000000000001
  0
LINE
  5
744
330
70
100
AcDbEntity
  8
Visible
100
AcDbLine
 10
663.4243009999998
 20
104.818669
 30
0.0
 11
673.4243009999999
 21
104.818669
 31
0.0
210
-1.0
220
-0.0000000000000002
230
-0.0000000000000001
  0
LINE
  5
745
330
70
100
AcDbEntity
  8
Visible
100
AcDbLine
 10
683.4243009999998
 20
104.818669
 30
0.0
 11
753.4243009999999
 21
104.818669
 31
0.0
210
-1.0
220
-0.0000000000000002
230
-0.0000000000000001
  0
LINE
  5
746
330
70
100
AcDbEntity
  8
Visible
100
AcDbLine
 10
753.4243009999999
 20
104.818669
 30
0.0
 11
753.4243009999999
 21
105.1186689999999
 31
0.0
210
-1.0
220
-0.0000000000000002
230
-0.0000000000000001
  0
LINE
  5
747
330
70
100
AcDbEntity
  8
Visible
100
AcDbLine
 10
53.42430100000001
 20
91.21866899999998
 30
0.0
 11
53.42430100000001
 21
104.818669
 31
0.0
210
-1.0
220
-0.0000000000000002
230
-0.0000000000000001
  0
LINE
  5
748
330
70
100
AcDbEntity
  8
Visible
100
AcDbLine
 10
753.4243009999999
 20
104.818669
 30
0.0
 11
753.4243009999999
 21
91.21866899999998
 31
0.0
210
-1.0
220
-0.0000000000000002
230
-0.0000000000000001
  0
LINE
  5
749
330
70
100
AcDbEntity
  8
Visible
100
AcDbLine
 10
53.42430100000001
 20
91.21866899999998
 30
0.0
 11
123.424301
 21
91.21866899999998
 31
0.0
210
-1.0
220
-0.0000000000000002
230
-0.0000000000000001
  0
LINE
  5
74A
330
70
100
AcDbEntity
  8
Visible
100
AcDbLine
 10
153.424301
 20
91.21866899999998
 30
0.0
 11
388.424301
 21
91.21866899999998
 31
0.0
210
-1.0
220
-0.0000000000000002
230
-0.0000000000000001
  0
LINE
  5
74B
330
70
100
AcDbEntity
  8
Visible
100
AcDbLine
 10
418.424301
 20
91.21866899999998
 30
0.0
 11
653.4243009999999
 21
91.21866899999998
 31
0.0
210
-1.0
220
-0.0000000000000002
230
-0.0000000000000001
  0
LINE
  5
74C
330
70
100
AcDbEntity
  8
Visible
100
AcDbLine
 10
683.4243009999998
 20
91.21866899999998
 30
0.0
 11
753.4243009999999
 21
91.21866899999998
 31
0.0
210
-1.0
220
-0.0000000000000002
230
-0.0000000000000001
  0
LINE
  5
74D
330
70
100
AcDbEntity
  8
Visible
100
AcDbLine
 10
53.42430100000001
 20
91.21866899999998
 30
0.0
 11
53.42430100000001
 21
90.91866899999999
 31
0.0
210
-1.0
220
-0.0000000000000002
230
-0.0000000000000001
  0
LINE
  5
74E
330
70
100
AcDbEntity
  8
Visible
100
AcDbLine
 10
753.4243009999999
 20
90.91866899999999
 30
0.0
 11
753.4243009999999
 21
91.21866899999998
 31
0.0
210
-1.0
220
-0.0000000000000002
230
-0.0000000000000001
  0
LINE
  5
74F
330
70
100
AcDbEntity
  8
Visible
100
AcDbLine
 10
53.42430100000001
 20
89.41866899999999
 30
0.0
 11
53.42430100000001
 21
90.91866899999999
 31
0.0
210
-1.0
220
-0.0000000000000002
230
-0.0000000000000001
  0
LINE
  5
750
330
70
100
AcDbEntity
  8
Visible
100
AcDbLine
 10
753.4243009999999
 20
90.91866899999999
 30
0.0
 11
753.4243009999999
 21
89.41866899999999
 31
0.0
210
-1.0
220
-0.0000000000000002
230
-0.0000000000000001
  0
LINE
  5
751
330
70
100
AcDbEntity
  8
Visible
100
AcDbLine
 10
53.42430100000001
 20
89.41866899999999
 30
0.0
 11
53.42430100000001
 21
89.21866899999997
 31
0.0
210
-1.0
220
-0.0000000000000002
230
-0.0000000000000001
  0
LINE
  5
752
330
70
100
AcDbEntity
  8
Visible
100
AcDbLine
 10
53.42430100000001
 20
89.21866899999997
 30
0.0
 11
123.424301
 21
89.21866899999997
 31
0.0
210
-1.0
220
-0.0000000000000002
230
-0.0000000000000001
  0
LINE
  5
753
330
70
100
AcDbEntity
  8
Visible
100
AcDbLine
 10
133.424301
 20
89.21866899999997
 30
0.0
 11
143.424301
 21
89.21866899999997
 31
0.0
210
-1.0
220
-0.0000000000000002
230
-0.0000000000000001
  0
LINE
  5
754
330
70
100
AcDbEntity
  8
Visible
100
AcDbLine
 10
153.424301
 20
89.21866899999997
 30
0.0
 11
388.424301
 21
89.21866899999997
 31
0.0
210
-1.0
220
-0.0000000000000002
230
-0.0000000000000001
  0
LINE
  5
755
330
70
100
AcDbEntity
  8
Visible
100
AcDbLine
 10
418.424301
 20
89.21866899999997
 30
0.0
 11
653.4243009999999
 21
89.21866899999997
 31
0.0
210
-1.0
220
-0.0000000000000002
230
-0.0000000000000001
  0
LINE
  5
756
330
70
100
AcDbEntity
  8
Visible
100
AcDbLine
 10
663.4243009999998
 20
89.21866899999997
 30
0.0
 11
673.4243009999999
 21
89.21866899999997
 31
0.0
210
-1.0
220
-0.0000000000000002
230
-0.0000000000000001
  0
LINE
  5
757
330
70
100
AcDbEntity
  8
Visible
100
AcDbLine
 10
683.4243009999998
 20
89.21866899999997
 30
0.0
 11
753.4243009999999
 21
89.21866899999997
 31
0.0
210
-1.0
220
-0.0000000000000002
230
-0.0000000000000001
  0
LINE
  5
758
330
70
100
AcDbEntity
  8
Visible
100
AcDbLine
 10
753.4243009999999
 20
89.21866899999997
 30
0.0
 11
753.4243009999999
 21
89.41866899999999
 31
0.0
210
-1.0
220
-0.0000000000000002
230
-0.0000000000000001
  0
ARC
  5
759
330
70
100
AcDbEntity
  8
Visible
100
AcDbCircle
 10
790.5440338587884
 20
225.2379815
 30
0.0
 40
0.2999999999998427
100
AcDbArc
 50
180.71616
 51
237.3499999999999
  0
LINE
  5
75A
330
70
100
AcDbEntity
  8
Visible
100
AcDbLine
 10
790.3821813587884
 20
224.9853865
 30
0.0
 11
792.0661463587885
 21
223.9063765
 31
0.0
  0
LINE
  5
75B
330
70
100
AcDbEntity
  8
Visible
100
AcDbLine
 10
792.0661463587885
 20
223.9063765
 30
0.0
 11
792.2279963587885
 21
224.158969
 31
0.0
  0
LINE
  5
75C
330
70
100
AcDbEntity
  8
Visible
100
AcDbLine
 10
792.2279963587885
 20
224.158969
 30
0.0
 11
790.5440338587884
 21
225.2379815
 31
0.0
  0
LINE
  5
75D
330
70
100
AcDbEntity
  8
Visible
100
AcDbLine
 10
790.5440338587884
 20
225.2379815
 30
0.0
 11
790.5030663587885
 21
228.515329
 31
0.0
  0
LINE
  5
75E
330
70
100
AcDbEntity
  8
Visible
100
AcDbLine
 10
790.5030663587885
 20
228.515329
 30
0.0
 11
790.2030888587884
 21
228.511579
 31
0.0
  0
LINE
  5
75F
330
70
100
AcDbEntity
  8
Visible
100
AcDbLine
 10
790.2030888587884
 20
228.511579
 30
0.0
 11
790.2440563587885
 21
225.2342315
 31
0.0
  0
LINE
  5
760
330
70
100
AcDbEntity
  8
Visible
100
AcDbLine
 10
806.1903963587884
 20
213.5127515000001
 30
0.0
 11
806.1941463587885
 21
213.8127515
 31
0.0
  0
LINE
  5
761
330
70
100
AcDbEntity
  8
Visible
100
AcDbLine
 10
806.1941463587885
 20
213.8127515
 30
0.0
 11
803.3103338587885
 21
213.8127515
 31
0.0
  0
LINE
  5
762
330
70
100
AcDbEntity
  8
Visible
100
AcDbLine
 10
803.3103338587885
 20
213.8127515
 30
0.0
 11
803.3103338587885
 21
213.5127515000001
 31
0.0
  0
LINE
  5
763
330
70
100
AcDbEntity
  8
Visible
100
AcDbLine
 10
803.3103338587885
 20
213.5127515000001
 30
0.0
 11
806.1903963587884
 21
213.5127515000001
 31
0.0
  0
LINE
  5
764
330
70
100
AcDbEntity
  8
Visible
100
AcDbLine
 10
792.3869813587884
 20
213.8127515
 30
0.0
 11
792.3907313587886
 21
213.5127515000001
 31
0.0
  0
LINE
  5
765
330
70
100
AcDbEntity
  8
Visible
100
AcDbLine
 10
792.3907313587886
 20
213.5127515000001
 30
0.0
 11
795.5708188587886
 21
213.5127515000001
 31
0.0
  0
LINE
  5
766
330
70
100
AcDbEntity
  8
Visible
100
AcDbLine
 10
795.5708188587886
 20
213.5127515000001
 30
0.0
 11
795.5708188587886
 21
213.8127515
 31
0.0
  0
LINE
  5
767
330
70
100
AcDbEntity
  8
Visible
100
AcDbLine
 10
795.5708188587886
 20
213.8127515
 30
0.0
 11
792.3869813587884
 21
213.8127515
 31
0.0
  0
LINE
  5
768
330
70
100
AcDbEntity
  8
Visible
100
AcDbLine
 10
790.6656463587884
 20
215.508869
 30
0.0
 11
790.5690388587885
 21
223.2375115
 31
0.0
  0
LINE
  5
769
330
70
100
AcDbEntity
  8
Visible
100
AcDbLine
 10
790.5690388587885
 20
223.2375115
 30
0.0
 11
790.2689688587885
 21
223.241264
 31
0.0
  0
LINE
  5
76A
330
70
100
AcDbEntity
  8
Visible
100
AcDbLine
 10
790.2689688587885
 20
223.241264
 30
0.0
 11
790.3656713587885
 21
215.505119
 31
0.0
  0
LINE
  5
76B
330
70
100
AcDbEntity
  8
Visible
100
AcDbLine
 10
790.3656713587885
 20
215.505119
 30
0.0
 11
790.6656463587884
 21
215.508869
 31
0.0
  0
LINE
  5
76C
330
70
100
AcDbEntity
  8
Visible
100
AcDbLine
 10
808.6343138587885
 20
225.011854
 30
0.0
 11
808.6780613587885
 21
228.511579
 31
0.0
  0
LINE
  5
76D
330
70
100
AcDbEntity
  8
Visible
100
AcDbLine
 10
808.6780613587885
 20
228.511579
 30
0.0
 11
808.3780838587886
 21
228.515329
 31
0.0
  0
LINE
  5
76E
330
70
100
AcDbEntity
  8
Visible
100
AcDbLine
 10
808.3780838587886
 20
228.515329
 30
0.0
 11
808.3343388587884
 21
225.0156015
 31
0.0
  0
LINE
  5
76F
330
70
100
AcDbEntity
  8
Visible
100
AcDbLine
 10
808.3343388587884
 20
225.0156015
 30
0.0
 11
806.6503738587886
 21
223.9365915
 31
0.0
  0
LINE
  5
770
330
70
100
AcDbEntity
  8
Visible
100
AcDbLine
 10
806.6503738587886
 20
223.9365915
 30
0.0
 11
806.8122263587884
 21
223.6839965
 31
0.0
  0
LINE
  5
771
330
70
100
AcDbEntity
  8
Visible
100
AcDbLine
 10
806.8122263587884
 20
223.6839965
 30
0.0
 11
808.4961888587885
 21
224.763009
 31
0.0
  0
ARC
  5
772
330
70
100
AcDbEntity
  8
Visible
100
AcDbCircle
 10
808.3343388587884
 20
225.0156015
 30
0.0
 40
0.3000000000000073
100
AcDbArc
 50
302.65
 51
359.2838399999999
  0
LINE
  5
773
330
70
100
AcDbEntity
  8
Visible
100
AcDbLine
 10
808.5154788587885
 20
215.505119
 30
0.0
 11
808.6093163587886
 21
223.012009
 31
0.0
  0
LINE
  5
774
330
70
100
AcDbEntity
  8
Visible
100
AcDbLine
 10
808.6093163587886
 20
223.012009
 30
0.0
 11
808.3093388587885
 21
223.0157590000001
 31
0.0
  0
LINE
  5
775
330
70
100
AcDbEntity
  8
Visible
100
AcDbLine
 10
808.3093388587885
 20
223.0157590000001
 30
0.0
 11
808.2155038587885
 21
215.508869
 31
0.0
  0
LINE
  5
776
330
70
100
AcDbEntity
  8
Visible
100
AcDbLine
 10
808.2155038587885
 20
215.508869
 30
0.0
 11
808.5154788587885
 21
215.505119
 31
0.0
  0
LINE
  5
777
330
70
100
AcDbEntity
  8
Visible
100
AcDbLine
 10
808.5154788587885
 20
215.505119
 30
0.0
 11
808.4942313587884
 21
213.8052515
 31
0.0
  0
LINE
  5
778
330
70
100
AcDbEntity
  8
Visible
100
AcDbLine
 10
808.6343138587885
 20
225.011854
 30
0.0
 11
808.6093163587886
 21
223.012009
 31
0.0
  0
LINE
  5
779
330
70
100
AcDbEntity
  8
Visible
100
AcDbLine
 10
792.3907313587886
 20
213.5127515000001
 30
0.0
 11
790.6830988587885
 21
213.5127515000001
 31
0.0
  0
LINE
  5
77A
330
70
100
AcDbEntity
  8
Visible
100
AcDbLine
 10
808.1980513587884
 20
213.5127515000001
 30
0.0
 11
806.1903963587884
 21
213.5127515000001
 31
0.0
  0
LINE
  5
77B
330
70
100
AcDbEntity
  8
Visible
100
AcDbLine
 10
803.3103338587885
 20
213.5127515000001
 30
0.0
 11
802.9046763587885
 21
213.5127515000001
 31
0.0
  0
LINE
  5
77C
330
70
100
AcDbEntity
  8
Visible
100
AcDbLine
 10
802.9046763587885
 20
213.5127515000001
 30
0.0
 11
795.9764738587884
 21
213.5127515000001
 31
0.0
  0
LINE
  5
77D
330
70
100
AcDbEntity
  8
Visible
100
AcDbLine
 10
795.9764738587884
 20
213.5127515000001
 30
0.0
 11
795.5708188587886
 21
213.5127515000001
 31
0.0
  0
LINE
  5
77E
330
70
100
AcDbEntity
  8
Visible
100
AcDbLine
 10
790.6693913587885
 20
215.2093290000001
 30
0.0
 11
790.6868488587885
 21
213.8127515
 31
0.0
  0
LINE
  5
77F
330
70
100
AcDbEntity
  8
Visible
100
AcDbLine
 10
790.5485238587885
 20
224.8788015
 30
0.0
 11
790.5690388587885
 21
223.2375115
 31
0.0
  0
LINE
  5
780
330
70
100
AcDbEntity
  8
Visible
100
AcDbLine
 10
795.9764738587884
 20
213.8127515
 30
0.0
 11
802.9046763587885
 21
213.8127515
 31
0.0
  0
LINE
  5
781
330
70
100
AcDbEntity
  8
Visible
100
AcDbLine
 10
795.9764738587884
 20
213.8127515
 30
0.0
 11
795.9764738587884
 21
213.5127515000001
 31
0.0
  0
LINE
  5
782
330
70
100
AcDbEntity
  8
Visible
100
AcDbLine
 10
802.9046763587885
 20
213.8127515
 30
0.0
 11
802.9046763587885
 21
213.5127515000001
 31
0.0
  0
LINE
  5
783
330
70
100
AcDbEntity
  8
Visible
100
AcDbLine
 10
795.5708188587886
 20
213.8127515
 30
0.0
 11
795.9764738587884
 21
213.8127515
 31
0.0
  0
LINE
  5
784
330
70
100
AcDbEntity
  8
Visible
100
AcDbLine
 10
802.9046763587885
 20
213.8127515
 30
0.0
 11
803.3103338587885
 21
213.8127515
 31
0.0
  0
ARC
  5
785
330
70
100
AcDbEntity
  8
Visible
100
AcDbCircle
 10
-790.6868488587885
 20
213.8127515
 30
0.0
 40
0.3000234365845293
210
0.0
220
0.0
230
-1.0
100
AcDbArc
 50
270.7161600000002
 51
358.5676800000001
  0
LINE
  5
786
330
70
100
AcDbEntity
  8
Visible
100
AcDbLine
 10
790.3869188587885
 20
213.8052515
 30
0.0
 11
790.3656713587885
 21
215.505119
 31
0.0
  0
LINE
  5
787
330
70
100
AcDbEntity
  8
Visible
100
AcDbLine
 10
790.6868488587885
 20
213.8127515
 30
0.0
 11
792.3869813587884
 21
213.8127515
 31
0.0
  0
ARC
  5
788
330
70
100
AcDbEntity
  8
Visible
100
AcDbCircle
 10
-808.1943013587885
 20
213.8127515
 30
0.0
 40
0.300023436584535
210
0.0
220
0.0
230
-1.0
100
AcDbArc
 50
181.4323199999998
 51
269.2838399999998
  0
LINE
  5
789
330
70
100
AcDbEntity
  8
Visible
100
AcDbLine
 10
806.1941463587885
 20
213.8127515
 30
0.0
 11
808.1943013587885
 21
213.8127515
 31
0.0
  0
LINE
  5
78A
330
70
100
AcDbEntity
  8
Visible
100
AcDbLine
 10
808.1943013587885
 20
213.8127515
 30
0.0
 11
808.2117588587886
 21
215.2093290000001
 31
0.0
  0
LINE
  5
78B
330
70
100
AcDbEntity
  8
Visible
100
AcDbLine
 10
808.3093388587885
 20
223.0157590000001
 30
0.0
 11
808.3298488587885
 21
224.656424
 31
0.0
  0
LINE
  5
78C
330
70
100
AcDbEntity
  8
Visible
100
AcDbLine
 10
790.2689688587885
 20
223.241264
 30
0.0
 11
790.2440563587885
 21
225.2342315
 31
0.0
  0
LINE
  5
78D
330
70
100
AcDbEntity
  8
Visible
100
AcDbLine
 10
792.9303013587884
 20
240.945254
 30
0.0
 11
793.0264663587884
 21
241.061969
 31
0.0
  0
ARC
  5
78E
330
70
100
AcDbEntity
  8
Visible
100
AcDbCircle
 10
792.6405763587885
 20
241.379914
 30
0.0
 40
0.499999999999994
100
AcDbArc
 50
320.5139820000001
 51
0.0
  0
LINE
  5
78F
330
70
100
AcDbEntity
  8
Visible
100
AcDbLine
 10
793.1405763587885
 20
241.379914
 30
0.0
 11
793.1405763587885
 21
242.009774
 31
0.0
  0
ARC
  5
790
330
70
100
AcDbEntity
  8
Visible
100
AcDbCircle
 10
792.1405763587886
 20
242.009774
 30
0.0
 40
1.000000000000178
100
AcDbArc
 50
0.0
 51
90.0
  0
LINE
  5
791
330
70
100
AcDbEntity
  8
Visible
100
AcDbLine
 10
792.1405763587886
 20
243.009774
 30
0.0
 11
791.6405763587886
 21
243.009774
 31
0.0
  0
LINE
  5
792
330
70
100
AcDbEntity
  8
Visible
100
AcDbLine
 10
791.6405763587886
 20
243.009774
 30
0.0
 11
791.6405763587886
 21
244.509774
 31
0.0
  0
LINE
  5
793
330
70
100
AcDbEntity
  8
Visible
100
AcDbLine
 10
791.6405763587886
 20
244.509774
 30
0.0
 11
807.2405763587886
 21
244.509774
 31
0.0
  0
LINE
  5
794
330
70
100
AcDbEntity
  8
Visible
100
AcDbLine
 10
807.2405763587886
 20
244.509774
 30
0.0
 11
807.2405763587886
 21
243.009774
 31
0.0
  0
LINE
  5
795
330
70
100
AcDbEntity
  8
Visible
100
AcDbLine
 10
807.2405763587886
 20
243.009774
 30
0.0
 11
806.7405763587885
 21
243.009774
 31
0.0
  0
ARC
  5
796
330
70
100
AcDbEntity
  8
Visible
100
AcDbCircle
 10
806.7405763587885
 20
242.009774
 30
0.0
 40
1.000000000000053
100
AcDbArc
 50
90.0
 51
180.0
  0
LINE
  5
797
330
70
100
AcDbEntity
  8
Visible
100
AcDbLine
 10
805.7405763587885
 20
242.009774
 30
0.0
 11
805.7405763587885
 21
241.379914
 31
0.0
  0
ARC
  5
798
330
70
100
AcDbEntity
  8
Visible
100
AcDbCircle
 10
806.2405763587886
 20
241.379914
 30
0.0
 40
0.5000000000010145
100
AcDbArc
 50
180.0
 51
219.4860179999999
  0
LINE
  5
799
330
70
100
AcDbEntity
  8
Visible
100
AcDbLine
 10
805.8546863587885
 20
241.061969
 30
0.0
 11
805.9508513587884
 21
240.945254
 31
0.0
  0
ARC
  5
79A
330
70
100
AcDbEntity
  8
Visible
100
AcDbCircle
 10
806.3367413587885
 20
241.263199
 30
0.0
 40
0.4999999999996563
100
AcDbArc
 50
219.4860179999999
 51
39.48601799999987
  0
LINE
  5
79B
330
70
100
AcDbEntity
  8
Visible
100
AcDbLine
 10
806.7226313587884
 20
241.581144
 30
0.0
 11
806.6390413587885
 21
241.682594
 31
0.0
  0
ARC
  5
79C
330
70
100
AcDbEntity
  8
Visible
100
AcDbCircle
 10
-806.7933963587885
 20
241.809774
 30
0.0
 40
0.2000000000001125
210
0.0
220
0.0
230
-1.0
100
AcDbArc
 50
320.5139820000001
 51
90.0
  0
LINE
  5
79D
330
70
100
AcDbEntity
  8
Visible
100
AcDbLine
 10
806.7933963587885
 20
242.009774
 30
0.0
 11
808.0405763587886
 21
242.009774
 31
0.0
  0
ARC
  5
79E
330
70
100
AcDbEntity
  8
Visible
100
AcDbCircle
 10
808.0405763587886
 20
242.2097740000001
 30
0.0
 40
0.199999999999999
100
AcDbArc
 50
270.0
 51
0.0
  0
LINE
  5
79F
330
70
100
AcDbEntity
  8
Visible
100
AcDbLine
 10
808.2405763587885
 20
242.2097740000001
 30
0.0
 11
808.2405763587885
 21
245.509774
 31
0.0
  0
ARC
  5
7A0
330
70
100
AcDbEntity
  8
Visible
100
AcDbCircle
 10
807.7405763587885
 20
245.509774
 30
0.0
 40
0.4999999999999938
100
AcDbArc
 50
0.0
 51
90.0
  0
LINE
  5
7A1
330
70
100
AcDbEntity
  8
Visible
100
AcDbLine
 10
807.7405763587885
 20
246.009774
 30
0.0
 11
791.1405763587886
 21
246.009774
 31
0.0
  0
ARC
  5
7A2
330
70
100
AcDbEntity
  8
Visible
100
AcDbCircle
 10
791.1405763587886
 20
245.509774
 30
0.0
 40
0.5000000000000048
100
AcDbArc
 50
90.0
 51
180.0
  0
LINE
  5
7A3
330
70
100
AcDbEntity
  8
Visible
100
AcDbLine
 10
790.6405763587884
 20
245.509774
 30
0.0
 11
790.6405763587884
 21
242.2097740000001
 31
0.0
  0
ARC
  5
7A4
330
70
100
AcDbEntity
  8
Visible
100
AcDbCircle
 10
790.8405763587887
 20
242.2097740000001
 30
0.0
 40
0.2000000000000313
100
AcDbArc
 50
180.0
 51
270.0
  0
LINE
  5
7A5
330
70
100
AcDbEntity
  8
Visible
100
AcDbLine
 10
790.8405763587887
 20
242.009774
 30
0.0
 11
792.0877538587884
 21
242.009774
 31
0.0
  0
ARC
  5
7A6
330
70
100
AcDbEntity
  8
Visible
100
AcDbCircle
 10
-792.0877538587884
 20
241.809774
 30
0.0
 40
0.2000000000000002
210
0.0
220
0.0
230
-1.0
100
AcDbArc
 50
90.0
 51
219.4860179999999
  0
LINE
  5
7A7
330
70
100
AcDbEntity
  8
Visible
100
AcDbLine
 10
792.2421088587886
 20
241.682594
 30
0.0
 11
792.1585213587884
 21
241.581144
 31
0.0
  0
ARC
  5
7A8
330
70
100
AcDbEntity
  8
Visible
100
AcDbCircle
 10
792.5444113587884
 20
241.263199
 30
0.0
 40
0.4999999999999991
100
AcDbArc
 50
140.5139820000001
 51
320.5139820000001
  0
LINE
  5
7A9
330
70
100
AcDbEntity
  8
Visible
100
AcDbLine
 10
804.1405763587885
 20
218.1127515
 30
0.0
 11
799.7405763587886
 21
218.1127515
 31
0.0
  0
LINE
  5
7AA
330
70
100
AcDbEntity
  8
Visible
100
AcDbLine
 10
799.7405763587886
 20
218.1127515
 30
0.0
 11
799.4405763587885
 21
217.8127515
 31
0.0
  0
LINE
  5
7AB
330
70
100
AcDbEntity
  8
Visible
100
AcDbLine
 10
799.4405763587885
 20
217.8127515
 30
0.0
 11
799.1405763587886
 21
218.1127515
 31
0.0
  0
LINE
  5
7AC
330
70
100
AcDbEntity
  8
Visible
100
AcDbLine
 10
799.1405763587886
 20
218.1127515
 30
0.0
 11
794.7405763587886
 21
218.1127515
 31
0.0
  0
LINE
  5
7AD
330
70
100
AcDbEntity
  8
Visible
100
AcDbLine
 10
794.7405763587886
 20
218.1127515
 30
0.0
 11
794.4405763587885
 21
217.8127515
 31
0.0
  0
LINE
  5
7AE
330
70
100
AcDbEntity
  8
Visible
100
AcDbLine
 10
794.4405763587885
 20
217.8127515
 30
0.0
 11
794.1405763587886
 21
218.1127515
 31
0.0
  0
LINE
  5
7AF
330
70
100
AcDbEntity
  8
Visible
100
AcDbLine
 10
794.1405763587886
 20
218.1127515
 30
0.0
 11
791.8405763587885
 21
218.1127515
 31
0.0
  0
LINE
  5
7B0
330
70
100
AcDbEntity
  8
Visible
100
AcDbLine
 10
791.8405763587885
 20
218.1127515
 30
0.0
 11
791.8405763587885
 21
229.023469
 31
0.0
  0
LINE
  5
7B1
330
70
100
AcDbEntity
  8
Visible
100
AcDbLine
 10
791.8405763587885
 20
229.023469
 30
0.0
 11
792.3405763587886
 21
229.023469
 31
0.0
  0
LINE
  5
7B2
330
70
100
AcDbEntity
  8
Visible
100
AcDbLine
 10
792.3405763587886
 20
229.023469
 30
0.0
 11
792.3405763587886
 21
229.199204
 31
0.0
  0
ARC
  5
7B3
330
70
100
AcDbEntity
  8
Visible
100
AcDbCircle
 10
792.0405763587885
 20
229.199204
 30
0.0
 40
0.2999999999994683
100
AcDbArc
 50
0.0
 51
44.99999999999966
  0
LINE
  5
7B4
330
70
100
AcDbEntity
  8
Visible
100
AcDbLine
 10
792.2527063587886
 20
229.4113365
 30
0.0
 11
791.8405763587885
 21
229.823469
 31
0.0
  0
LINE
  5
7B5
330
70
100
AcDbEntity
  8
Visible
100
AcDbLine
 10
791.8405763587885
 20
229.823469
 30
0.0
 11
791.8405763587885
 21
231.3303240000001
 31
0.0
  0
ARC
  5
7B6
330
70
100
AcDbEntity
  8
Visible
100
AcDbCircle
 10
-792.3405763587886
 20
231.3303240000001
 30
0.0
 40
0.499999999999946
210
0.0
220
0.0
230
-1.0
100
AcDbArc
 50
0.0
 51
39.48601799999987
  0
LINE
  5
7B7
330
70
100
AcDbEntity
  8
Visible
100
AcDbLine
 10
791.9546863587885
 20
231.648269
 30
0.0
 11
792.1177538587885
 21
231.846184
 31
0.0
  0
ARC
  5
7B8
330
70
100
AcDbEntity
  8
Visible
100
AcDbCircle
 10
792.0405763587885
 20
231.9097740000001
 30
0.0
 40
0.0999999999999558
100
AcDbArc
 50
320.5139820000001
 51
90.0
  0
LINE
  5
7B9
330
70
100
AcDbEntity
  8
Visible
100
AcDbLine
 10
792.0405763587885
 20
232.009774
 30
0.0
 11
790.8405763587887
 21
232.009774
 31
0.0
  0
ARC
  5
7BA
330
70
100
AcDbEntity
  8
Visible
100
AcDbCircle
 10
790.8405763587887
 20
231.809774
 30
0.0
 40
0.200000000000119
100
AcDbArc
 50
90.0
 51
180.0
  0
LINE
  5
7BB
330
70
100
AcDbEntity
  8
Visible
100
AcDbLine
 10
790.6405763587884
 20
231.809774
 30
0.0
 11
790.6405763587884
 21
230.2097740000001
 31
0.0
  0
LINE
  5
7BC
330
70
100
AcDbEntity
  8
Visible
100
AcDbLine
 10
790.6405763587884
 20
230.2097740000001
 30
0.0
 11
791.1405763587886
 21
230.2097740000001
 31
0.0
  0
LINE
  5
7BD
330
70
100
AcDbEntity
  8
Visible
100
AcDbLine
 10
791.1405763587886
 20
230.2097740000001
 30
0.0
 11
791.1405763587886
 21
229.0097740000001
 31
0.0
  0
LINE
  5
7BE
330
70
100
AcDbEntity
  8
Visible
100
AcDbLine
 10
791.1405763587886
 20
229.0097740000001
 30
0.0
 11
790.6405763587884
 21
229.0097740000001
 31
0.0
  0
LINE
  5
7BF
330
70
100
AcDbEntity
  8
Visible
100
AcDbLine
 10
790.6405763587884
 20
229.0097740000001
 30
0.0
 11
790.6405763587884
 21
225.977364
 31
0.0
  0
LINE
  5
7C0
330
70
100
AcDbEntity
  8
Visible
100
AcDbLine
 10
790.6405763587884
 20
225.977364
 30
0.0
 11
791.1405763587886
 21
225.977364
 31
0.0
  0
LINE
  5
7C1
330
70
100
AcDbEntity
  8
Visible
100
AcDbLine
 10
791.1405763587886
 20
225.977364
 30
0.0
 11
791.1405763587886
 21
222.977364
 31
0.0
  0
LINE
  5
7C2
330
70
100
AcDbEntity
  8
Visible
100
AcDbLine
 10
791.1405763587886
 20
222.977364
 30
0.0
 11
790.6405763587884
 21
222.977364
 31
0.0
  0
LINE
  5
7C3
330
70
100
AcDbEntity
  8
Visible
100
AcDbLine
 10
790.6405763587884
 20
222.977364
 30
0.0
 11
790.6405763587884
 21
215.3127515
 31
0.0
  0
ARC
  5
7C4
330
70
100
AcDbEntity
  8
Visible
100
AcDbCircle
 10
790.8405763587887
 20
215.3127515
 30
0.0
 40
0.1999999999999987
100
AcDbArc
 50
180.0
 51
270.0
  0
LINE
  5
7C5
330
70
100
AcDbEntity
  8
Visible
100
AcDbLine
 10
790.8405763587887
 20
215.1127515
 30
0.0
 11
792.3405763587886
 21
215.1127515
 31
0.0
  0
ARC
  5
7C6
330
70
100
AcDbEntity
  8
Visible
100
AcDbCircle
 10
792.3405763587886
 20
215.4127515
 30
0.0
 40
0.299999999999997
100
AcDbArc
 50
270.0
 51
0.0
  0
LINE
  5
7C7
330
70
100
AcDbEntity
  8
Visible
100
AcDbLine
 10
792.6405763587885
 20
215.4127515
 30
0.0
 11
792.6405763587885
 21
215.8127515
 31
0.0
  0
ARC
  5
7C8
330
70
100
AcDbEntity
  8
Visible
100
AcDbCircle
 10
792.3405763587886
 20
215.8127515
 30
0.0
 40
0.3000000000000003
100
AcDbArc
 50
0.0
 51
90.0
  0
LINE
  5
7C9
330
70
100
AcDbEntity
  8
Visible
100
AcDbLine
 10
792.3405763587886
 20
216.1127515
 30
0.0
 11
791.6405763587886
 21
216.1127515
 31
0.0
  0
LINE
  5
7CA
330
70
100
AcDbEntity
  8
Visible
100
AcDbLine
 10
791.6405763587886
 20
216.1127515
 30
0.0
 11
791.6405763587886
 21
217.1127515
 31
0.0
  0
LINE
  5
7CB
330
70
100
AcDbEntity
  8
Visible
100
AcDbLine
 10
791.6405763587886
 20
217.1127515
 30
0.0
 11
807.2405763587886
 21
217.1127515
 31
0.0
  0
LINE
  5
7CC
330
70
100
AcDbEntity
  8
Visible
100
AcDbLine
 10
807.2405763587886
 20
217.1127515
 30
0.0
 11
807.2405763587886
 21
216.1127515
 31
0.0
  0
LINE
  5
7CD
330
70
100
AcDbEntity
  8
Visible
100
AcDbLine
 10
807.2405763587886
 20
216.1127515
 30
0.0
 11
806.5405763587884
 21
216.1127515
 31
0.0
  0
ARC
  5
7CE
330
70
100
AcDbEntity
  8
Visible
100
AcDbCircle
 10
806.5405763587884
 20
215.8127515
 30
0.0
 40
0.3000000000000012
100
AcDbArc
 50
90.0
 51
180.0
  0
LINE
  5
7CF
330
70
100
AcDbEntity
  8
Visible
100
AcDbLine
 10
806.2405763587886
 20
215.8127515
 30
0.0
 11
806.2405763587886
 21
215.4127515
 31
0.0
  0
ARC
  5
7D0
330
70
100
AcDbEntity
  8
Visible
100
AcDbCircle
 10
806.5405763587884
 20
215.4127515
 30
0.0
 40
0.299999999999998
100
AcDbArc
 50
180.0
 51
270.0
  0
LINE
  5
7D1
330
70
100
AcDbEntity
  8
Visible
100
AcDbLine
 10
806.5405763587884
 20
215.1127515
 30
0.0
 11
808.0405763587886
 21
215.1127515
 31
0.0
  0
ARC
  5
7D2
330
70
100
AcDbEntity
  8
Visible
100
AcDbCircle
 10
808.0405763587886
 20
215.3127515
 30
0.0
 40
0.199999999999997
100
AcDbArc
 50
270.0
 51
0.0
  0
LINE
  5
7D3
330
70
100
AcDbEntity
  8
Visible
100
AcDbLine
 10
808.2405763587885
 20
215.3127515
 30
0.0
 11
808.2405763587885
 21
222.977364
 31
0.0
  0
LINE
  5
7D4
330
70
100
AcDbEntity
  8
Visible
100
AcDbLine
 10
808.2405763587885
 20
222.977364
 30
0.0
 11
807.7405763587885
 21
222.977364
 31
0.0
  0
LINE
  5
7D5
330
70
100
AcDbEntity
  8
Visible
100
AcDbLine
 10
807.7405763587885
 20
222.977364
 30
0.0
 11
807.7405763587885
 21
225.977364
 31
0.0
  0
LINE
  5
7D6
330
70
100
AcDbEntity
  8
Visible
100
AcDbLine
 10
807.7405763587885
 20
225.977364
 30
0.0
 11
808.2405763587885
 21
225.977364
 31
0.0
  0
LINE
  5
7D7
330
70
100
AcDbEntity
  8
Visible
100
AcDbLine
 10
808.2405763587885
 20
225.977364
 30
0.0
 11
808.2405763587885
 21
229.0097740000001
 31
0.0
  0
LINE
  5
7D8
330
70
100
AcDbEntity
  8
Visible
100
AcDbLine
 10
808.2405763587885
 20
229.0097740000001
 30
0.0
 11
807.7405763587885
 21
229.0097740000001
 31
0.0
  0
LINE
  5
7D9
330
70
100
AcDbEntity
  8
Visible
100
AcDbLine
 10
807.7405763587885
 20
229.0097740000001
 30
0.0
 11
807.7405763587885
 21
230.2097740000001
 31
0.0
  0
LINE
  5
7DA
330
70
100
AcDbEntity
  8
Visible
100
AcDbLine
 10
807.7405763587885
 20
230.2097740000001
 30
0.0
 11
808.2405763587885
 21
230.2097740000001
 31
0.0
  0
LINE
  5
7DB
330
70
100
AcDbEntity
  8
Visible
100
AcDbLine
 10
808.2405763587885
 20
230.2097740000001
 30
0.0
 11
808.2405763587885
 21
231.809774
 31
0.0
  0
ARC
  5
7DC
330
70
100
AcDbEntity
  8
Visible
100
AcDbCircle
 10
808.0405763587886
 20
231.809774
 30
0.0
 40
0.2000000000001778
100
AcDbArc
 50
0.0
 51
90.0
  0
LINE
  5
7DD
330
70
100
AcDbEntity
  8
Visible
100
AcDbLine
 10
808.0405763587886
 20
232.009774
 30
0.0
 11
806.8405763587886
 21
232.009774
 31
0.0
  0
ARC
  5
7DE
330
70
100
AcDbEntity
  8
Visible
100
AcDbCircle
 10
806.8405763587886
 20
231.9097740000001
 30
0.0
 40
0.0999999999998303
100
AcDbArc
 50
90.0
 51
219.4860179999999
  0
LINE
  5
7DF
330
70
100
AcDbEntity
  8
Visible
100
AcDbLine
 10
806.7633963587883
 20
231.846184
 30
0.0
 11
806.9264663587883
 21
231.648269
 31
0.0
  0
ARC
  5
7E0
330
70
100
AcDbEntity
  8
Visible
100
AcDbCircle
 10
-806.5405763587884
 20
231.3303240000001
 30
0.0
 40
0.5000000000001341
210
0.0
220
0.0
230
-1.0
100
AcDbArc
 50
140.5139820000001
 51
180.0
  0
LINE
  5
7E1
330
70
100
AcDbEntity
  8
Visible
100
AcDbLine
 10
807.0405763587885
 20
231.3303240000001
 30
0.0
 11
807.0405763587885
 21
229.823469
 31
0.0
  0
LINE
  5
7E2
330
70
100
AcDbEntity
  8
Visible
100
AcDbLine
 10
807.0405763587885
 20
229.823469
 30
0.0
 11
806.6284438587885
 21
229.4113365
 31
0.0
  0
ARC
  5
7E3
330
70
100
AcDbEntity
  8
Visible
100
AcDbCircle
 10
806.8405763587886
 20
229.199204
 30
0.0
 40
0.3000000000000603
100
AcDbArc
 50
135.0000000000003
 51
180.0
  0
LINE
  5
7E4
330
70
100
AcDbEntity
  8
Visible
100
AcDbLine
 10
806.5405763587884
 20
229.199204
 30
0.0
 11
806.5405763587884
 21
229.023469
 31
0.0
  0
LINE
  5
7E5
330
70
100
AcDbEntity
  8
Visible
100
AcDbLine
 10
806.5405763587884
 20
229.023469
 30
0.0
 11
807.0405763587885
 21
229.023469
 31
0.0
  0
LINE
  5
7E6
330
70
100
AcDbEntity
  8
Visible
100
AcDbLine
 10
807.0405763587885
 20
229.023469
 30
0.0
 11
807.0405763587885
 21
218.1127515
 31
0.0
  0
LINE
  5
7E7
330
70
100
AcDbEntity
  8
Visible
100
AcDbLine
 10
807.0405763587885
 20
218.1127515
 30
0.0
 11
804.7405763587885
 21
218.1127515
 31
0.0
  0
LINE
  5
7E8
330
70
100
AcDbEntity
  8
Visible
100
AcDbLine
 10
804.7405763587885
 20
218.1127515
 30
0.0
 11
804.4405763587885
 21
217.8127515
 31
0.0
  0
LINE
  5
7E9
330
70
100
AcDbEntity
  8
Visible
100
AcDbLine
 10
804.4405763587885
 20
217.8127515
 30
0.0
 11
804.1405763587885
 21
218.1127515
 31
0.0
  0
ENDSEC
  0
SECTION
  2
OBJECTS
  0
DICTIONARY
  5
C
330
0
100
AcDbDictionary
281
     1
  3
ACAD_CIP_PREVIOUS_PRODUCT_INFO
350
936
  3
ACAD_COLOR
350
63
  3
ACAD_DETAILVIEWSTYLE
350
6A
  3
ACAD_FIELDLIST
350
490
  3
ACAD_GROUP
350
D
  3
ACAD_LAYOUT
350
62
  3
ACAD_MATERIAL
350
10
  3
ACAD_MLEADERSTYLE
350
66
  3
ACAD_MLINESTYLE
350
5F
  3
ACAD_PLOTSETTINGS
350
61
  3
ACAD_PLOTSTYLENAME
350
E
  3
ACAD_SCALELIST
350
42
  3
ACAD_SECTIONVIEWSTYLE
350
68
  3
ACAD_TABLESTYLE
350
64
  3
ACAD_VISUALSTYLE
350
29
  3
ACDB_RECOMPOSE_DATA
350
97E
  3
AcDbVariableDictionary
350
91E
  0
DICTIONARY
  5
AE
330
70
100
AcDbDictionary
280
     1
281
     1
  3
ACAD_SORTENTS
360
AF
  0
DICTIONARY
  5
36D
330
36C
100
AcDbDictionary
280
     1
281
     1
  0
DICTIONARY
  5
3B3
330
3B2
100
AcDbDictionary
280
     1
281
     1
  3
ACAD_SORTENTS
360
5DA
  0
DICTIONARY
  5
3CE
330
3CD
100
AcDbDictionary
280
     1
281
     1
  0
DICTIONARY
  5
3D0
330
3CF
100
AcDbDictionary
280
     1
281
     1
  0
DICTIONARY
  5
3D2
330
3D1
100
AcDbDictionary
280
     1
281
     1
  0
DICTIONARY
  5
3D4
330
3D3
100
AcDbDictionary
280
     1
281
     1
  0
DICTIONARY
  5
3D6
330
3D5
100
AcDbDictionary
280
     1
281
     1
  0
DICTIONARY
  5
3D8
330
3D7
100
AcDbDictionary
280
     1
281
     1
  0
DICTIONARY
  5
3DA
330
3D9
100
AcDbDictionary
280
     1
281
     1
  0
DICTIONARY
  5
3DC
330
3DB
100
AcDbDictionary
280
     1
281
     1
  0
DICTIONARY
  5
3DE
330
3DD
100
AcDbDictionary
280
     1
281
     1
  0
DICTIONARY
  5
3E0
330
3DF
100
AcDbDictionary
280
     1
281
     1
  0
DICTIONARY
  5
3E2
330
3E1
100
AcDbDictionary
280
     1
281
     1
  0
DICTIONARY
  5
3E4
330
3E3
100
AcDbDictionary
280
     1
281
     1
  0
DICTIONARY
  5
3E6
330
3E5
100
AcDbDictionary
280
     1
281
     1
  0
DICTIONARY
  5
3E8
330
3E7
100
AcDbDictionary
280
     1
281
     1
  0
DICTIONARY
  5
3EA
330
3E9
100
AcDbDictionary
280
     1
281
     1
  0
XRECORD
  5
936
102
{ACAD_REACTORS
330
C
102
}
330
C
100
AcDbXrecord
280
     1
300
ACD
300
2023
300

  0
DICTIONARY
  5
63
102
{ACAD_REACTORS
330
C
102
}
330
C
100
AcDbDictionary
281
     1
  0
DICTIONARY
  5
6A
102
{ACAD_REACTORS
330
C
102
}
330
C
100
AcDbDictionary
281
     1
  3
Imperial24
350
6B
  3
Metric50
350
930
  0
FIELDLIST
  5
490
102
{ACAD_REACTORS
330
C
102
}
330
C
100
AcDbIdSet
 90
        0
100
AcDbFieldList
  0
DICTIONARY
  5
D
102
{ACAD_REACTORS
330
C
102
}
330
C
100
AcDbDictionary
281
     1
  0
DICTIONARY
  5
62
102
{ACAD_REACTORS
330
C
102
}
330
C
100
AcDbDictionary
281
     1
  3
Model
350
73
  3
シート1
350
6F
  3
シート2
350
77
  0
DICTIONARY
  5
10
102
{ACAD_REACTORS
330
C
102
}
330
C
100
AcDbDictionary
281
     1
  3
ByBlock
350
19
  3
ByLayer
350
11
  3
Global
350
21
  0
DICTIONARY
  5
66
102
{ACAD_REACTORS
330
C
102
}
330
C
100
AcDbDictionary
281
     1
  3
Standard
350
67
  0
DICTIONARY
  5
5F
102
{ACAD_REACTORS
330
C
102
}
330
C
100
AcDbDictionary
281
     1
  3
Standard
350
60
  0
DICTIONARY
  5
61
102
{ACAD_REACTORS
330
C
102
}
330
C
100
AcDbDictionary
281
     1
  0
ACDBDICTIONARYWDFLT
  5
E
102
{ACAD_REACTORS
330
C
102
}
330
C
100
AcDbDictionary
281
     1
  3
Normal
350
F
100
AcDbDictionaryWithDefault
340
F
  0
DICTIONARY
  5
42
102
{ACAD_REACTORS
330
C
102
}
330
C
100
AcDbDictionary
281
     1
  3
*A1
350
AC
  3
*A2
350
AD
  3
A0
350
43
  3
A1
350
44
  3
A2
350
45
  3
A3
350
46
  3
A4
350
47
  3
A5
350
48
  3
A6
350
49
  3
A7
350
4A
  3
A8
350
4B
  3
A9
350
4C
  3
B0
350
4D
  3
B1
350
4E
  3
B2
350
4F
  3
B3
350
50
  3
B4
350
51
  3
B5
350
52
  3
B6
350
53
  0
DICTIONARY
  5
68
102
{ACAD_REACTORS
330
C
102
}
330
C
100
AcDbDictionary
281
     1
  3
Imperial24
350
69
  3
Metric50
350
92F
  0
DICTIONARY
  5
64
102
{ACAD_REACTORS
330
C
102
}
330
C
100
AcDbDictionary
281
     1
  3
Standard
350
65
  0
DICTIONARY
  5
29
102
{ACAD_REACTORS
330
C
102
}
330
C
100
AcDbDictionary
281
     1
  3
2dWireframe
350
2F
  3
Basic
350
2E
  3
Brighten
350
35
  3
ColorChange
350
39
  3
Conceptual
350
32
  3
Dim
350
34
  3
EdgeColorOff
350
41
  3
Facepattern
350
38
  3
Flat
350
2A
  3
FlatWithEdges
350
2B
  3
Gouraud
350
2C
  3
GouraudWithEdges
350
2D
  3
Hidden
350
31
  3
JitterOff
350
3F
  3
Linepattern
350
37
  3
OverhangOff
350
40
  3
Realistic
350
33
  3
Shaded
350
3E
  3
Shaded with edges
350
3D
  3
Shades of Gray
350
3A
  3
Sketchy
350
3B
  3
Thicken
350
36
  3
Wireframe
350
30
  3
X-Ray
350
3C
  0
XRECORD
  5
97E
102
{ACAD_REACTORS
330
C
102
}
330
C
100
AcDbXrecord
280
     1
 90
        1
330
65
  0
DICTIONARY
  5
91E
102
{ACAD_REACTORS
330
C
102
}
330
C
100
AcDbDictionary
281
     1
  3
ANNOALLVISIBLE
350
923
  3
CANNOSCALE
350
924
  3
CMLEADERSTYLE
350
920
  3
CTABLESTYLE
350
91F
  3
CVIEWDETAILSTYLE
350
921
  3
CVIEWSECTIONSTYLE
350
922
  0
SORTENTSTABLE
  5
AF
102
{ACAD_REACTORS
330
AE
102
}
330
AE
100
AcDbSortentsTable
330
70
  0
SORTENTSTABLE
  5
5DA
102
{ACAD_REACTORS
330
3B3
102
}
330
3B3
100
AcDbSortentsTable
330
3B2
  0
ACDBDETAILVIEWSTYLE
  5
6B
102
{ACAD_REACTORS
330
6A
102
}
330
6A
100
AcDbModelDocViewStyle
 70
     0
  3
Imperial24
290
     0
300
Imperial24
 90
        0
100
AcDbDetailViewStyle
 70
     0
 71
     0
 90
        3
 71
     1
340
55
 62
   256
 40
0.24
340
0
 62
   256
 40
0.24
300

 40
0.36
280
     3
 71
     2
340
5D
 90
       25
 62
   256
 71
     3
340
55
 62
   256
 40
0.24
 90
        1
 40
0.75
 90
        1
300
%<\AcVar ViewType \f "%tc1">% %<\AcVar ViewDetailId>%\P尺度 %<\AcVar ViewScale \f "%sn">%
 71
     4
340
5D
 90
       25
 62
   256
340
5D
 90
       25
 62
   256
280
     0
  0
ACDBDETAILVIEWSTYLE
  5
930
102
{ACAD_REACTORS
330
6A
102
}
330
6A
100
AcDbModelDocViewStyle
 70
     0
  3
Metric50
290
     0
300
Metric50
 90
        0
100
AcDbDetailViewStyle
 70
     0
 71
     0
 90
        3
 71
     1
340
55
 62
   256
 40
5.0
340
0
 62
   256
 40
5.0
300

 40
0.0
280
     1
 71
     2
340
5D
 90
       25
 62
   256
 71
     3
340
55
 62
   256
 40
5.0
 90
        0
 40
15.0
 90
        1
300
%<\AcVar ViewDetailId>% (%<\AcVar ViewScale \f "%sn">%)
 71
     4
340
5D
 90
       25
 62
   256
340
5D
 90
       25
 62
   256
280
     0
  0
LAYOUT
  5
73
102
{ACAD_REACTORS
330
62
102
}
330
62
100
AcDbPlotSettings
  1

  2
AutoCAD PDF (High Quality Print).pc3
  4
ISO_full_bleed_A3_(420.00_x_297.00_MM)
  6

 40
0.0
 41
0.0
 42
0.0
 43
0.0
 44
420.0
 45
297.0
 46
0.0
 47
0.0
 48
0.0
 49
0.0
140
0.0
141
0.0
142
1.0
143
1.202328999999999
 70
 11952
 72
     1
 73
     0
 74
     0
  7

 75
     0
147
0.831719
 76
     0
 77
     2
 78
   300
148
42.476302
149
13.679299
100
AcDbLayout
  1
Model
 70
     1
 71
     0
 10
0.0
 20
0.0
 11
12.0
 21
9.0
 12
0.0
 22
0.0
 32
0.0
 14
0.0
 24
0.0
 34
0.0
 15
0.0
 25
0.0
 35
0.0
146
0.0
 13
0.0
 23
0.0
 33
0.0
 16
1.0
 26
0.0
 36
0.0
 17
0.0
 27
1.0
 37
0.0
 76
     0
330
70
331
57
1001
ACAD_PSEXT
1000
AutoCAD PDF (High Quality Print).pc3
1000
DWG To PDF
1000
ファイル
1000

1070
     0
  0
LAYOUT
  5
6F
102
{ACAD_REACTORS
330
62
102
}
330
62
100
AcDbPlotSettings
  1

  2
None
  4

  6

 40
0.0
 41
0.0
 42
0.0
 43
0.0
 44
0.0
 45
0.0
 46
0.0
 47
0.0
 48
0.0
 49
0.0
140
0.0
141
0.0
142
1.0
143
1.0
 70
   688
 72
     0
 73
     0
 74
     5
  7

 75
    16
147
1.0
 76
     0
 77
     2
 78
   300
148
0.0
149
0.0
100
AcDbLayout
  1
シート1
 70
     1
 71
     1
 10
0.0
 20
0.0
 11
12.0
 21
9.0
 12
0.0
 22
0.0
 32
0.0
 14
1.000000000000000E+20
 24
1.000000000000000E+20
 34
1.000000000000000E+20
 15
-1.000000000000000E+20
 25
-1.000000000000000E+20
 35
-1.000000000000000E+20
146
0.0
 13
0.0
 23
0.0
 33
0.0
 16
1.0
 26
0.0
 36
0.0
 17
0.0
 27
1.0
 37
0.0
 76
     0
330
6C
  0
LAYOUT
  5
77
102
{ACAD_REACTORS
330
62
102
}
330
62
100
AcDbPlotSettings
  1

  2
None
  4

  6

 40
0.0
 41
0.0
 42
0.0
 43
0.0
 44
0.0
 45
0.0
 46
0.0
 47
0.0
 48
0.0
 49
0.0
140
0.0
141
0.0
142
1.0
143
1.0
 70
   688
 72
     0
 73
     0
 74
     5
  7

 75
    16
147
1.0
 76
     0
 77
     2
 78
   300
148
0.0
149
0.0
100
AcDbLayout
  1
シート2
 70
     1
 71
     2
 10
0.0
 20
0.0
 11
12.0
 21
9.0
 12
0.0
 22
0.0
 32
0.0
 14
0.0
 24
0.0
 34
0.0
 15
0.0
 25
0.0
 35
0.0
146
0.0
 13
0.0
 23
0.0
 33
0.0
 16
1.0
 26
0.0
 36
0.0
 17
0.0
 27
1.0
 37
0.0
 76
     0
330
74
  0
MATERIAL
  5
19
102
{ACAD_XDICTIONARY
360
1A
102
}
102
{ACAD_REACTORS
330
10
102
}
330
10
100
AcDbMaterial
  1
ByBlock
 72
     0
 43
0.020833
 43
0.0
 43
0.0
 43
0.0
 43
0.0
 43
0.020833
 43
0.0
 43
0.0
 43
0.0
 43
0.0
 43
1.0
 43
0.0
 43
0.0
 43
0.0
 43
0.0
 43
1.0
 77
     0
 47
0.020833
 47
0.0
 47
0.0
 47
0.0
 47
0.0
 47
0.020833
 47
0.0
 47
0.0
 47
0.0
 47
0.0
 47
1.0
 47
0.0
 47
0.0
 47
0.0
 47
0.0
 47
1.0
171
     0
 49
0.020833
 49
0.0
 49
0.0
 49
0.0
 49
0.0
 49
0.020833
 49
0.0
 49
0.0
 49
0.0
 49
0.0
 49
1.0
 49
0.0
 49
0.0
 49
0.0
 49
0.0
 49
1.0
175
     0
142
0.020833
142
0.0
142
0.0
142
0.0
142
0.0
142
0.020833
142
0.0
142
0.0
142
0.0
142
0.0
142
1.0
142
0.0
142
0.0
142
0.0
142
0.0
142
1.0
179
     0
144
0.020833
144
0.0
144
0.0
144
0.0
144
0.0
144
0.020833
144
0.0
144
0.0
144
0.0
144
0.0
144
1.0
144
0.0
144
0.0
144
0.0
144
0.0
144
1.0
147
0.020833
147
0.0
147
0.0
147
0.0
147
0.0
147
0.020833
147
0.0
147
0.0
147
0.0
147
0.0
147
1.0
147
0.0
147
0.0
147
0.0
147
0.0
147
1.0
  0
MATERIAL
  5
11
102
{ACAD_XDICTIONARY
360
12
102
}
102
{ACAD_REACTORS
330
10
102
}
330
10
100
AcDbMaterial
  1
ByLayer
 72
     0
 43
0.020833
 43
0.0
 43
0.0
 43
0.0
 43
0.0
 43
0.020833
 43
0.0
 43
0.0
 43
0.0
 43
0.0
 43
1.0
 43
0.0
 43
0.0
 43
0.0
 43
0.0
 43
1.0
 77
     0
 47
0.020833
 47
0.0
 47
0.0
 47
0.0
 47
0.0
 47
0.020833
 47
0.0
 47
0.0
 47
0.0
 47
0.0
 47
1.0
 47
0.0
 47
0.0
 47
0.0
 47
0.0
 47
1.0
171
     0
 49
0.020833
 49
0.0
 49
0.0
 49
0.0
 49
0.0
 49
0.020833
 49
0.0
 49
0.0
 49
0.0
 49
0.0
 49
1.0
 49
0.0
 49
0.0
 49
0.0
 49
0.0
 49
1.0
175
     0
142
0.020833
142
0.0
142
0.0
142
0.0
142
0.0
142
0.020833
142
0.0
142
0.0
142
0.0
142
0.0
142
1.0
142
0.0
142
0.0
142
0.0
142
0.0
142
1.0
179
     0
144
0.020833
144
0.0
144
0.0
144
0.0
144
0.0
144
0.020833
144
0.0
144
0.0
144
0.0
144
0.0
144
1.0
144
0.0
144
0.0
144
0.0
144
0.0
144
1.0
147
0.020833
147
0.0
147
0.0
147
0.0
147
0.0
147
0.020833
147
0.0
147
0.0
147
0.0
147
0.0
147
1.0
147
0.0
147
0.0
147
0.0
147
0.0
147
1.0
  0
MATERIAL
  5
21
102
{ACAD_XDICTIONARY
360
22
102
}
102
{ACAD_REACTORS
330
10
102
}
330
10
100
AcDbMaterial
  1
Global
 72
     0
 43
0.020833
 43
0.0
 43
0.0
 43
0.0
 43
0.0
 43
0.020833
 43
0.0
 43
0.0
 43
0.0
 43
0.0
 43
1.0
 43
0.0
 43
0.0
 43
0.0
 43
0.0
 43
1.0
 77
     0
 47
0.020833
 47
0.0
 47
0.0
 47
0.0
 47
0.0
 47
0.020833
 47
0.0
 47
0.0
 47
0.0
 47
0.0
 47
1.0
 47
0.0
 47
0.0
 47
0.0
 47
0.0
 47
1.0
171
     0
 49
0.020833
 49
0.0
 49
0.0
 49
0.0
 49
0.0
 49
0.020833
 49
0.0
 49
0.0
 49
0.0
 49
0.0
 49
1.0
 49
0.0
 49
0.0
 49
0.0
 49
0.0
 49
1.0
175
     0
142
0.020833
142
0.0
142
0.0
142
0.0
142
0.0
142
0.020833
142
0.0
142
0.0
142
0.0
142
0.0
142
1.0
142
0.0
142
0.0
142
0.0
142
0.0
142
1.0
179
     0
144
0.020833
144
0.0
144
0.0
144
0.0
144
0.0
144
0.020833
144
0.0
144
0.0
144
0.0
144
0.0
144
1.0
144
0.0
144
0.0
144
0.0
144
0.0
144
1.0
147
0.020833
147
0.0
147
0.0
147
0.0
147
0.0
147
0.020833
147
0.0
147
0.0
147
0.0
147
0.0
147
1.0
147
0.0
147
0.0
147
0.0
147
0.0
147
1.0
  0
MLEADERSTYLE
  5
67
102
{ACAD_REACTORS
330
66
102
}
330
66
100
AcDbMLeaderStyle
179
     2
170
     2
171
     1
172
     0
 90
        2
 40
0.0
 41
0.0
173
     1
 91
-1056964608
340
5B
 92
       -2
290
     1
 42
0.09
291
     1
 43
0.36
  3
Standard
 44
0.18
300

342
55
174
     1
178
     6
175
     1
176
     0
 93
-1056964608
 45
0.18
292
     0
297
     0
 46
0.18
 94
-1056964608
 47
1.0
 49
1.0
140
1.0
293
     1
141
0.0
294
     1
177
     0
142
1.0
295
     0
296
     0
143
0.125
271
     0
272
     9
273
     9
298
     1
  0
MLINESTYLE
  5
60
102
{ACAD_REACTORS
330
5F
102
}
330
5F
100
AcDbMlineStyle
  2
STANDARD
 70
     0
  3

 62
   256
 51
90.0
 52
90.0
 71
     0
  0
ACDBPLACEHOLDER
  5
F
102
{ACAD_REACTORS
330
E
102
}
330
E
  0
SCALE
  5
AC
102
{ACAD_REACTORS
330
42
102
}
330
42
100
AcDbScale
 70
     0
300
1:2.5
140
0.4
141
1.0
290
     0
  0
SCALE
  5
AD
102
{ACAD_REACTORS
330
42
102
}
330
42
100
AcDbScale
 70
     0
300
1.5
140
1.5
141
1.0
290
     0
  0
SCALE
  5
43
102
{ACAD_REACTORS
330
42
102
}
330
42
100
AcDbScale
 70
     0
300
1:1
140
1.0
141
1.0
290
     1
  0
SCALE
  5
44
102
{ACAD_REACTORS
330
42
102
}
330
42
100
AcDbScale
 70
     0
300
1:2
140
1.0
141
2.0
290
     0
  0
SCALE
  5
45
102
{ACAD_REACTORS
330
42
102
}
330
42
100
AcDbScale
 70
     0
300
1:4
140
1.0
141
4.0
290
     0
  0
SCALE
  5
46
102
{ACAD_REACTORS
330
42
102
}
330
42
100
AcDbScale
 70
     0
300
1:5
140
1.0
141
5.0
290
     0
  0
SCALE
  5
47
102
{ACAD_REACTORS
330
42
102
}
330
42
100
AcDbScale
 70
     0
300
1:8
140
1.0
141
8.0
290
     0
  0
SCALE
  5
48
102
{ACAD_REACTORS
330
42
102
}
330
42
100
AcDbScale
 70
     0
300
1:10
140
1.0
141
10.0
290
     0
  0
SCALE
  5
49
102
{ACAD_REACTORS
330
42
102
}
330
42
100
AcDbScale
 70
     0
300
1:16
140
1.0
141
16.0
290
     0
  0
SCALE
  5
4A
102
{ACAD_REACTORS
330
42
102
}
330
42
100
AcDbScale
 70
     0
300
1:20
140
1.0
141
20.0
290
     0
  0
SCALE
  5
4B
102
{ACAD_REACTORS
330
42
102
}
330
42
100
AcDbScale
 70
     0
300
1:30
140
1.0
141
30.0
290
     0
  0
SCALE
  5
4C
102
{ACAD_REACTORS
330
42
102
}
330
42
100
AcDbScale
 70
     0
300
1:40
140
1.0
141
40.0
290
     0
  0
SCALE
  5
4D
102
{ACAD_REACTORS
330
42
102
}
330
42
100
AcDbScale
 70
     0
300
1:50
140
1.0
141
50.0
290
     0
  0
SCALE
  5
4E
102
{ACAD_REACTORS
330
42
102
}
330
42
100
AcDbScale
 70
     0
300
1:100
140
1.0
141
100.0
290
     0
  0
SCALE
  5
4F
102
{ACAD_REACTORS
330
42
102
}
330
42
100
AcDbScale
 70
     0
300
2:1
140
2.0
141
1.0
290
     0
  0
SCALE
  5
50
102
{ACAD_REACTORS
330
42
102
}
330
42
100
AcDbScale
 70
     0
300
4:1
140
4.0
141
1.0
290
     0
  0
SCALE
  5
51
102
{ACAD_REACTORS
330
42
102
}
330
42
100
AcDbScale
 70
     0
300
8:1
140
8.0
141
1.0
290
     0
  0
SCALE
  5
52
102
{ACAD_REACTORS
330
42
102
}
330
42
100
AcDbScale
 70
     0
300
10:1
140
10.0
141
1.0
290
     0
  0
SCALE
  5
53
102
{ACAD_REACTORS
330
42
102
}
330
42
100
AcDbScale
 70
     0
300
100:1
140
100.0
141
1.0
290
     0
  0
ACDBSECTIONVIEWSTYLE
  5
69
102
{ACAD_REACTORS
330
68
102
}
330
68
100
AcDbModelDocViewStyle
 70
     0
  3
Imperial24
290
     0
300
Imperial24
 90
        0
100
AcDbSectionViewStyle
 70
     0
 71
     0
 90
       78
 71
     1
340
55
 62
   256
 40
0.24
340
0
340
0
 62
   256
 40
0.24
300
I, O, Q, S, X, Z
 40
0.48
 90
        3
 40
0.18
 90
        1
 71
     2
340
5D
 90
       25
 62
   256
340
5D
 90
       50
 62
   256
 40
0.24
 40
0.0
 40
0.24
 71
     3
340
55
 62
   256
 40
0.24
 90
        1
 40
0.75
 90
        1
300
%<\AcVar ViewType \f "%tc1">% %<\AcVar ViewSectionStartId>%-%<\AcVar ViewSectionEndId>%\P尺度 %<\AcVar ViewScale \f "%sn">%
 71
     4
 62
   256
 62
   257
300
ANSI31
 40
1.0
 90
        0
290
     0
290
     0
 90
        6
 40
0.0
 40
1.570795999999999
 40
0.261799
 40
1.308996999999999
 40
-0.261799
 40
1.832595999999999
  0
ACDBSECTIONVIEWSTYLE
  5
92F
102
{ACAD_REACTORS
330
68
102
}
330
68
100
AcDbModelDocViewStyle
 70
     0
  3
Metric50
290
     0
300
Metric50
 90
        0
100
AcDbSectionViewStyle
 70
     0
 71
     0
 90
      102
 71
     1
340
55
 62
   256
 40
5.0
340
0
340
0
 62
   256
 40
5.0
300
I, O, Q, S, X, Z
 40
10.0
 90
        0
 40
2.5
 90
        0
 71
     2
340
5D
 90
       25
 62
   256
340
5D
 90
       50
 62
   256
 40
5.0
 40
2.5
 40
5.0
 71
     3
340
55
 62
   256
 40
5.0
 90
        0
 40
15.0
 90
        1
300
%<\AcVar ViewSectionStartId>%-%<\AcVar ViewSectionEndId>% (%<\AcVar ViewScale \f "%sn">%)
 71
     4
 62
   256
 62
   257
300
ANSI31
 40
1.0
 90
        0
290
     0
290
     0
 90
        6
 40
0.0
 40
1.570796326794896
 40
0.2617993877991494
 40
1.308996938995747
 40
-0.2617993877991494
 40
1.832595714594046
  0
TABLESTYLE
  5
65
102
{ACAD_XDICTIONARY
360
925
102
}
102
{ACAD_REACTORS
330
64
102
}
330
64
100
AcDbTableStyle
280
     0
  3
Standard
 70
     0
 71
     0
 40
1.5
 41
1.5
280
     0
281
     0
  7
Standard
140
0.18
170
     2
 62
     0
 63
     7
283
     0
 90
      512
 91
        0
  1

274
    -2
284
     1
 64
     0
275
    -2
285
     1
 65
     0
276
    -2
286
     1
 66
     0
277
    -2
287
     1
 67
     0
278
    -2
288
     1
 68
     0
279
    -2
289
     1
 69
     0
  7
Standard
140
0.25
170
     5
 62
     0
 63
     7
283
     0
 90
      512
 91
        0
  1

274
    -2
284
     1
 64
     0
275
    -2
285
     1
 65
     0
276
    -2
286
     1
 66
     0
277
    -2
287
     1
 67
     0
278
    -2
288
     1
 68
     0
279
    -2
289
     1
 69
     0
  7
Standard
140
0.18
170
     5
 62
     0
 63
     7
283
     0
 90
      512
 91
        0
  1

274
    -2
284
     1
 64
     0
275
    -2
285
     1
 65
     0
276
    -2
286
     1
 66
     0
277
    -2
287
     1
 67
     0
278
    -2
288
     1
 68
     0
279
    -2
289
     1
 69
     0
  0
VISUALSTYLE
  5
2F
102
{ACAD_REACTORS
330
29
102
}
330
29
100
AcDbVisualStyle
  2
2dWireframe
 70
     4
177
     3
291
     0
 70
    58
 90
        0
176
     1
 90
        2
176
     1
 90
        0
176
     1
 90
        0
176
     1
 40
0.6
176
     1
 40
30.0
176
     1
 62
     7
420
 16777215
176
     1
 90
        1
176
     1
 90
        4
176
     1
 62
     7
176
     1
 62
   257
176
     1
 90
        1
176
     1
 90
        1
176
     1
 40
1.0
176
     1
 90
        0
176
     1
 62
   257
176
     1
 40
1.0
176
     1
 90
        1
176
     1
 90
        6
176
     1
 90
        2
176
     1
 62
     7
176
     1
 90
        5
176
     1
 90
        0
176
     1
 90
        0
176
     1
290
     0
176
     1
 90
        1
176
     1
 40
0.0
176
     1
 90
        0
176
     1
290
     1
176
     1
290
     1
176
     1
290
     0
176
     1
290
     0
176
     1
290
     0
176
     1
290
     0
176
     1
290
     0
176
     1
290
     0
176
     1
290
     0
176
     1
 90
       50
176
     1
 40
0.0
176
     1
 40
1.0
176
     1
 90
        0
176
     1
 62
    18
176
     1
 90
       50
176
     1
 90
        3
176
     1
 62
     5
420
      255
176
     1
290
     0
176
     1
 90
       50
176
     1
 90
       50
176
     1
 90
       50
176
     1
290
     0
176
     1
 90
       50
176
     1
 62
   256
176
     0
 40
1.0
176
     0
 90
        2
176
     1
  1
strokes_ogs.tif
176
     1
290
     0
176
     1
 40
1.0
176
     1
 40
1.0
176
     1
1001
ACAD
1000
AcDbSavedByObjectVersion
1070
     0
  0
VISUALSTYLE
  5
2E
102
{ACAD_REACTORS
330
29
102
}
330
29
100
AcDbVisualStyle
  2
Basic
 70
     7
177
     3
291
     1
 70
    58
 90
        1
176
     1
 90
        0
176
     1
 90
        1
176
     1
 90
        0
176
     1
 40
0.6
176
     1
 40
30.0
176
     1
 62
     7
420
 16777215
176
     1
 90
        0
176
     1
 90
        4
176
     1
 62
     7
176
     1
 62
   257
176
     1
 90
        1
176
     1
 90
        1
176
     1
 40
1.0
176
     1
 90
        8
176
     1
 62
     7
176
     1
 40
1.0
176
     1
 90
        1
176
     1
 90
        6
176
     1
 90
        2
176
     1
 62
     7
176
     1
 90
        5
176
     1
 90
        0
176
     1
 90
        0
176
     1
290
     0
176
     1
 90
        1
176
     1
 40
0.0
176
     1
 90
        0
176
     1
290
     0
176
     1
290
     1
176
     1
290
     1
176
     1
290
     0
176
     1
290
     0
176
     1
290
     0
176
     1
290
     0
176
     1
290
     0
176
     1
290
     0
176
     1
 90
       50
176
     1
 40
0.0
176
     1
 40
1.0
176
     1
 90
        0
176
     1
 62
    18
176
     1
 90
       50
176
     1
 90
        3
176
     1
 62
     5
420
      255
176
     1
290
     0
176
     1
 90
       50
176
     1
 90
       50
176
     1
 90
       50
176
     1
290
     0
176
     1
 90
       50
176
     1
 62
   256
176
     0
 40
1.0
176
     0
 90
        2
176
     1
  1
strokes_ogs.tif
176
     1
290
     0
176
     1
 40
1.0
176
     1
 40
1.0
176
     1
1001
ACAD
1000
AcDbSavedByObjectVersion
1070
     0
  0
VISUALSTYLE
  5
35
102
{ACAD_REACTORS
330
29
102
}
330
29
100
AcDbVisualStyle
  2
Brighten
 70
    12
177
     3
291
     1
 70
    58
 90
        2
176
     1
 90
        2
176
     1
 90
        0
176
     1
 90
        0
176
     1
 40
0.6
176
     1
 40
30.0
176
     1
 62
     7
420
 16777215
176
     1
 90
        1
176
     1
 90
        4
176
     1
 62
     7
176
     1
 62
   257
176
     1
 90
        1
176
     1
 90
        1
176
     1
 40
1.0
176
     1
 90
        8
176
     1
 62
     7
176
     1
 40
1.0
176
     1
 90
        1
176
     1
 90
        6
176
     1
 90
        2
176
     1
 62
     7
176
     1
 90
        5
176
     1
 90
        0
176
     1
 90
        0
176
     1
290
     0
176
     1
 90
        1
176
     1
 40
50.0
176
     1
 90
        0
176
     1
290
     0
176
     1
290
     1
176
     1
290
     1
176
     1
290
     0
176
     1
290
     0
176
     1
290
     0
176
     1
290
     0
176
     1
290
     0
176
     1
290
     0
176
     1
 90
       50
176
     1
 40
0.0
176
     1
 40
1.0
176
     1
 90
        0
176
     1
 62
    18
176
     1
 90
       50
176
     1
 90
        3
176
     1
 62
     5
420
      255
176
     1
290
     0
176
     1
 90
       50
176
     1
 90
       50
176
     1
 90
       50
176
     1
290
     0
176
     1
 90
       50
176
     1
 62
   256
176
     0
 40
1.0
176
     0
 90
        2
176
     1
  1
strokes_ogs.tif
176
     1
290
     0
176
     1
 40
1.0
176
     1
 40
1.0
176
     1
1001
ACAD
1000
AcDbSavedByObjectVersion
1070
     0
  0
VISUALSTYLE
  5
39
102
{ACAD_REACTORS
330
29
102
}
330
29
100
AcDbVisualStyle
  2
ColorChange
 70
    16
177
     3
291
     1
 70
    58
 90
        2
176
     1
 90
        2
176
     1
 90
        3
176
     1
 90
        0
176
     1
 40
0.6
176
     1
 40
30.0
176
     1
 62
     8
420
  8421504
176
     1
 90
        1
176
     1
 90
        4
176
     1
 62
     7
176
     1
 62
   257
176
     1
 90
        1
176
     1
 90
        1
176
     1
 40
1.0
176
     1
 90
        8
176
     1
 62
     8
420
  8421504
176
     1
 40
1.0
176
     1
 90
        1
176
     1
 90
        6
176
     1
 90
        2
176
     1
 62
     7
176
     1
 90
        5
176
     1
 90
        0
176
     1
 90
        0
176
     1
290
     0
176
     1
 90
        1
176
     1
 40
0.0
176
     1
 90
        0
176
     1
290
     0
176
     1
290
     1
176
     1
290
     1
176
     1
290
     0
176
     1
290
     0
176
     1
290
     0
176
     1
290
     0
176
     1
290
     0
176
     1
290
     0
176
     1
 90
       50
176
     1
 40
0.0
176
     1
 40
1.0
176
     1
 90
        0
176
     1
 62
    18
176
     1
 90
       50
176
     1
 90
        3
176
     1
 62
     5
420
      255
176
     1
290
     0
176
     1
 90
       50
176
     1
 90
       50
176
     1
 90
       50
176
     1
290
     0
176
     1
 90
       50
176
     1
 62
   256
176
     0
 40
1.0
176
     0
 90
        2
176
     1
  1
strokes_ogs.tif
176
     1
290
     0
176
     1
 40
1.0
176
     1
 40
1.0
176
     1
1001
ACAD
1000
AcDbSavedByObjectVersion
1070
     0
  0
VISUALSTYLE
  5
32
102
{ACAD_REACTORS
330
29
102
}
330
29
100
AcDbVisualStyle
  2
Conceptual
 70
     9
177
     3
291
     0
 70
    58
 90
        3
176
     1
 90
        2
176
     1
 90
        0
176
     1
 90
        0
176
     1
 40
0.6
176
     1
 40
30.0
176
     1
 62
     7
420
 16777215
176
     1
 90
        2
176
     1
 90
        2
176
     1
 62
     7
176
     1
 62
   257
176
     1
 90
        1
176
     1
 90
        1
176
     1
 40
179.0
176
     1
 90
        8
176
     1
 62
     7
176
     1
 40
1.0
176
     1
 90
        1
176
     1
 90
        6
176
     1
 90
        2
176
     1
 62
     7
176
     1
 90
        3
176
     1
 90
        0
176
     1
 90
        0
176
     1
290
     0
176
     1
 90
        1
176
     1
 40
0.0
176
     1
 90
        0
176
     1
290
     0
176
     1
290
     1
176
     1
290
     1
176
     1
290
     0
176
     1
290
     0
176
     1
290
     0
176
     1
290
     0
176
     1
290
     0
176
     1
290
     0
176
     1
 90
       50
176
     1
 40
0.0
176
     1
 40
1.0
176
     1
 90
        0
176
     1
 62
    18
176
     1
 90
       50
176
     1
 90
        3
176
     1
 62
     5
420
      255
176
     1
290
     0
176
     1
 90
       50
176
     1
 90
       50
176
     1
 90
       50
176
     1
290
     0
176
     1
 90
       50
176
     1
 62
   256
176
     0
 40
1.0
176
     0
 90
        2
176
     1
  1
strokes_ogs.tif
176
     1
290
     0
176
     1
 40
1.0
176
     1
 40
1.0
176
     1
1001
ACAD
1000
AcDbSavedByObjectVersion
1070
     0
  0
VISUALSTYLE
  5
34
102
{ACAD_REACTORS
330
29
102
}
330
29
100
AcDbVisualStyle
  2
Dim
 70
    11
177
     3
291
     1
 70
    58
 90
        2
176
     1
 90
        2
176
     1
 90
        0
176
     1
 90
        0
176
     1
 40
0.6
176
     1
 40
30.0
176
     1
 62
     7
420
 16777215
176
     1
 90
        1
176
     1
 90
        4
176
     1
 62
     7
176
     1
 62
   257
176
     1
 90
        1
176
     1
 90
        1
176
     1
 40
1.0
176
     1
 90
        8
176
     1
 62
     7
176
     1
 40
1.0
176
     1
 90
        1
176
     1
 90
        6
176
     1
 90
        2
176
     1
 62
     7
176
     1
 90
        5
176
     1
 90
        0
176
     1
 90
        0
176
     1
290
     0
176
     1
 90
        1
176
     1
 40
-50.0
176
     1
 90
        0
176
     1
290
     0
176
     1
290
     1
176
     1
290
     1
176
     1
290
     0
176
     1
290
     0
176
     1
290
     0
176
     1
290
     0
176
     1
290
     0
176
     1
290
     0
176
     1
 90
       50
176
     1
 40
0.0
176
     1
 40
1.0
176
     1
 90
        0
176
     1
 62
    18
176
     1
 90
       50
176
     1
 90
        3
176
     1
 62
     5
420
      255
176
     1
290
     0
176
     1
 90
       50
176
     1
 90
       50
176
     1
 90
       50
176
     1
290
     0
176
     1
 90
       50
176
     1
 62
   256
176
     0
 40
1.0
176
     0
 90
        2
176
     1
  1
strokes_ogs.tif
176
     1
290
     0
176
     1
 40
1.0
176
     1
 40
1.0
176
     1
1001
ACAD
1000
AcDbSavedByObjectVersion
1070
     0
  0
VISUALSTYLE
  5
41
102
{ACAD_REACTORS
330
29
102
}
330
29
100
AcDbVisualStyle
  2
EdgeColorOff
 70
    22
177
     3
291
     1
 70
    58
 90
        2
176
     0
 90
        2
176
     0
 90
        0
176
     0
 90
        0
176
     0
 40
0.6
176
     0
 40
30.0
176
     0
 62
     7
420
 16777215
176
     0
 90
        1
176
     0
 90
        4
176
     0
 62
     7
176
     0
 62
   257
176
     0
 90
        1
176
     0
 90
        1
176
     0
 40
1.0
176
     0
 90
        8
176
     2
 62
     7
176
     0
 40
1.0
176
     0
 90
        1
176
     0
 90
        6
176
     0
 90
        2
176
     0
 62
     7
176
     0
 90
        5
176
     0
 90
        0
176
     0
 90
        0
176
     0
290
     0
176
     0
 90
        1
176
     0
 40
0.0
176
     0
 90
        0
176
     0
290
     0
176
     0
290
     1
176
     0
290
     1
176
     0
290
     0
176
     0
290
     0
176
     0
290
     0
176
     0
290
     0
176
     0
290
     0
176
     0
290
     0
176
     0
 90
       50
176
     0
 40
0.0
176
     0
 40
1.0
176
     0
 90
        0
176
     0
 62
    18
176
     0
 90
       50
176
     0
 90
        3
176
     0
 62
     5
420
      255
176
     0
290
     0
176
     0
 90
       50
176
     0
 90
       50
176
     0
 90
       50
176
     0
290
     0
176
     0
 90
       50
176
     0
 62
   256
176
     0
 40
1.0
176
     0
 90
        2
176
     0
  1
strokes_ogs.tif
176
     0
290
     0
176
     0
 40
1.0
176
     0
 40
1.0
176
     0
1001
ACAD
1000
AcDbSavedByObjectVersion
1070
     0
  0
VISUALSTYLE
  5
38
102
{ACAD_REACTORS
330
29
102
}
330
29
100
AcDbVisualStyle
  2
Facepattern
 70
    15
177
     3
291
     1
 70
    58
 90
        2
176
     1
 90
        2
176
     1
 90
        0
176
     1
 90
        0
176
     1
 40
0.6
176
     1
 40
30.0
176
     1
 62
     7
420
 16777215
176
     1
 90
        1
176
     1
 90
        4
176
     1
 62
     7
176
     1
 62
   257
176
     1
 90
        1
176
     1
 90
        1
176
     1
 40
1.0
176
     1
 90
        8
176
     1
 62
     7
176
     1
 40
1.0
176
     1
 90
        1
176
     1
 90
        6
176
     1
 90
        2
176
     1
 62
     7
176
     1
 90
        5
176
     1
 90
        0
176
     1
 90
        0
176
     1
290
     0
176
     1
 90
        1
176
     1
 40
0.0
176
     1
 90
        0
176
     1
290
     0
176
     1
290
     1
176
     1
290
     1
176
     1
290
     0
176
     1
290
     0
176
     1
290
     0
176
     1
290
     0
176
     1
290
     0
176
     1
290
     0
176
     1
 90
       50
176
     1
 40
0.0
176
     1
 40
1.0
176
     1
 90
        0
176
     1
 62
    18
176
     1
 90
       50
176
     1
 90
        3
176
     1
 62
     5
420
      255
176
     1
290
     0
176
     1
 90
       50
176
     1
 90
       50
176
     1
 90
       50
176
     1
290
     0
176
     1
 90
       50
176
     1
 62
   256
176
     0
 40
1.0
176
     0
 90
        2
176
     1
  1
strokes_ogs.tif
176
     1
290
     0
176
     1
 40
1.0
176
     1
 40
1.0
176
     1
1001
ACAD
1000
AcDbSavedByObjectVersion
1070
     0
  0
VISUALSTYLE
  5
2A
102
{ACAD_REACTORS
330
29
102
}
330
29
100
AcDbVisualStyle
  2
Flat
 70
     0
177
     3
291
     1
 70
    58
 90
        2
176
     1
 90
        1
176
     1
 90
        1
176
     1
 90
        2
176
     1
 40
0.6
176
     1
 40
30.0
176
     1
 62
     7
420
 16777215
176
     1
 90
        0
176
     1
 90
        0
176
     1
 62
     7
176
     1
 62
   257
176
     1
 90
        1
176
     1
 90
        1
176
     1
 40
1.0
176
     1
 90
        8
176
     1
 62
     7
176
     1
 40
1.0
176
     1
 90
        1
176
     1
 90
        6
176
     1
 90
        2
176
     1
 62
     7
176
     1
 90
        5
176
     1
 90
        0
176
     1
 90
        0
176
     1
290
     0
176
     1
 90
       13
176
     1
 40
0.0
176
     1
 90
        0
176
     1
290
     0
176
     1
290
     1
176
     1
290
     1
176
     1
290
     0
176
     1
290
     0
176
     1
290
     0
176
     1
290
     0
176
     1
290
     0
176
     1
290
     0
176
     1
 90
       50
176
     1
 40
0.0
176
     1
 40
1.0
176
     1
 90
        0
176
     1
 62
    18
176
     1
 90
       50
176
     1
 90
        3
176
     1
 62
     5
420
      255
176
     1
290
     0
176
     1
 90
       50
176
     1
 90
       50
176
     1
 90
       50
176
     1
290
     0
176
     1
 90
       50
176
     1
 62
   256
176
     0
 40
1.0
176
     0
 90
        2
176
     1
  1
strokes_ogs.tif
176
     1
290
     0
176
     1
 40
1.0
176
     1
 40
1.0
176
     1
1001
ACAD
1000
AcDbSavedByObjectVersion
1070
     0
  0
VISUALSTYLE
  5
2B
102
{ACAD_REACTORS
330
29
102
}
330
29
100
AcDbVisualStyle
  2
FlatWithEdges
 70
     1
177
     3
291
     1
 70
    58
 90
        2
176
     1
 90
        1
176
     1
 90
        1
176
     1
 90
        2
176
     1
 40
0.6
176
     1
 40
30.0
176
     1
 62
     7
420
 16777215
176
     1
 90
        1
176
     1
 90
        0
176
     1
 62
     7
176
     1
 62
   257
176
     1
 90
        1
176
     1
 90
        1
176
     1
 40
1.0
176
     1
 90
        0
176
     1
 62
   257
176
     1
 40
1.0
176
     1
 90
        1
176
     1
 90
        6
176
     1
 90
        2
176
     1
 62
     7
176
     1
 90
        5
176
     1
 90
        0
176
     1
 90
        0
176
     1
290
     0
176
     1
 90
       13
176
     1
 40
0.0
176
     1
 90
        0
176
     1
290
     0
176
     1
290
     1
176
     1
290
     1
176
     1
290
     0
176
     1
290
     0
176
     1
290
     0
176
     1
290
     0
176
     1
290
     0
176
     1
290
     0
176
     1
 90
       50
176
     1
 40
0.0
176
     1
 40
1.0
176
     1
 90
        0
176
     1
 62
    18
176
     1
 90
       50
176
     1
 90
        3
176
     1
 62
     5
420
      255
176
     1
290
     0
176
     1
 90
       50
176
     1
 90
       50
176
     1
 90
       50
176
     1
290
     0
176
     1
 90
       50
176
     1
 62
   256
176
     0
 40
1.0
176
     0
 90
        2
176
     1
  1
strokes_ogs.tif
176
     1
290
     0
176
     1
 40
1.0
176
     1
 40
1.0
176
     1
1001
ACAD
1000
AcDbSavedByObjectVersion
1070
     0
  0
VISUALSTYLE
  5
2C
102
{ACAD_REACTORS
330
29
102
}
330
29
100
AcDbVisualStyle
  2
Gouraud
 70
     2
177
     3
291
     1
 70
    58
 90
        2
176
     1
 90
        2
176
     1
 90
        1
176
     1
 90
        2
176
     1
 40
0.6
176
     1
 40
30.0
176
     1
 62
     7
420
 16777215
176
     1
 90
        0
176
     1
 90
        0
176
     1
 62
     7
176
     1
 62
   257
176
     1
 90
        1
176
     1
 90
        1
176
     1
 40
1.0
176
     1
 90
        0
176
     1
 62
     7
176
     1
 40
1.0
176
     1
 90
        1
176
     1
 90
        6
176
     1
 90
        2
176
     1
 62
     7
176
     1
 90
        5
176
     1
 90
        0
176
     1
 90
        0
176
     1
290
     0
176
     1
 90
       13
176
     1
 40
0.0
176
     1
 90
        0
176
     1
290
     0
176
     1
290
     1
176
     1
290
     1
176
     1
290
     0
176
     1
290
     0
176
     1
290
     0
176
     1
290
     0
176
     1
290
     0
176
     1
290
     0
176
     1
 90
       50
176
     1
 40
0.0
176
     1
 40
1.0
176
     1
 90
        0
176
     1
 62
    18
176
     1
 90
       50
176
     1
 90
        3
176
     1
 62
     5
420
      255
176
     1
290
     0
176
     1
 90
       50
176
     1
 90
       50
176
     1
 90
       50
176
     1
290
     0
176
     1
 90
       50
176
     1
 62
   256
176
     0
 40
1.0
176
     0
 90
        2
176
     1
  1
strokes_ogs.tif
176
     1
290
     0
176
     1
 40
1.0
176
     1
 40
1.0
176
     1
1001
ACAD
1000
AcDbSavedByObjectVersion
1070
     0
  0
VISUALSTYLE
  5
2D
102
{ACAD_REACTORS
330
29
102
}
330
29
100
AcDbVisualStyle
  2
GouraudWithEdges
 70
     3
177
     3
291
     1
 70
    58
 90
        2
176
     1
 90
        2
176
     1
 90
        1
176
     1
 90
        2
176
     1
 40
0.6
176
     1
 40
30.0
176
     1
 62
     7
420
 16777215
176
     1
 90
        1
176
     1
 90
        0
176
     1
 62
     7
176
     1
 62
   257
176
     1
 90
        1
176
     1
 90
        1
176
     1
 40
1.0
176
     1
 90
        0
176
     1
 62
   257
176
     1
 40
1.0
176
     1
 90
        1
176
     1
 90
        6
176
     1
 90
        2
176
     1
 62
     7
176
     1
 90
        5
176
     1
 90
        0
176
     1
 90
        0
176
     1
290
     0
176
     1
 90
       13
176
     1
 40
0.0
176
     1
 90
        0
176
     1
290
     0
176
     1
290
     1
176
     1
290
     1
176
     1
290
     0
176
     1
290
     0
176
     1
290
     0
176
     1
290
     0
176
     1
290
     0
176
     1
290
     0
176
     1
 90
       50
176
     1
 40
0.0
176
     1
 40
1.0
176
     1
 90
        0
176
     1
 62
    18
176
     1
 90
       50
176
     1
 90
        3
176
     1
 62
     5
420
      255
176
     1
290
     0
176
     1
 90
       50
176
     1
 90
       50
176
     1
 90
       50
176
     1
290
     0
176
     1
 90
       50
176
     1
 62
   256
176
     0
 40
1.0
176
     0
 90
        2
176
     1
  1
strokes_ogs.tif
176
     1
290
     0
176
     1
 40
1.0
176
     1
 40
1.0
176
     1
1001
ACAD
1000
AcDbSavedByObjectVersion
1070
     0
  0
VISUALSTYLE
  5
31
102
{ACAD_REACTORS
330
29
102
}
330
29
100
AcDbVisualStyle
  2
Hidden
 70
     6
177
     3
291
     0
 70
    58
 90
        1
176
     1
 90
        2
176
     1
 90
        2
176
     1
 90
        0
176
     1
 40
0.6
176
     1
 40
30.0
176
     1
 62
     7
420
 16777215
176
     1
 90
        2
176
     1
 90
        2
176
     1
 62
     7
176
     1
 62
   257
176
     1
 90
        2
176
     1
 90
        1
176
     1
 40
40.0
176
     1
 90
        0
176
     1
 62
   257
176
     1
 40
1.0
176
     1
 90
        1
176
     1
 90
        6
176
     1
 90
        2
176
     1
 62
     7
176
     1
 90
        3
176
     1
 90
        0
176
     1
 90
        0
176
     1
290
     0
176
     1
 90
        1
176
     1
 40
0.0
176
     1
 90
        0
176
     1
290
     0
176
     1
290
     1
176
     1
290
     1
176
     1
290
     0
176
     1
290
     0
176
     1
290
     0
176
     1
290
     0
176
     1
290
     0
176
     1
290
     0
176
     1
 90
       50
176
     1
 40
0.0
176
     1
 40
1.0
176
     1
 90
        0
176
     1
 62
    18
176
     1
 90
       50
176
     1
 90
        3
176
     1
 62
     5
420
      255
176
     1
290
     0
176
     1
 90
       50
176
     1
 90
       50
176
     1
 90
       50
176
     1
290
     0
176
     1
 90
       50
176
     1
 62
   256
176
     0
 40
1.0
176
     0
 90
        2
176
     1
  1
strokes_ogs.tif
176
     1
290
     0
176
     1
 40
1.0
176
     1
 40
1.0
176
     1
1001
ACAD
1000
AcDbSavedByObjectVersion
1070
     0
  0
VISUALSTYLE
  5
3F
102
{ACAD_REACTORS
330
29
102
}
330
29
100
AcDbVisualStyle
  2
JitterOff
 70
    20
177
     3
291
     1
 70
    58
 90
        2
176
     0
 90
        2
176
     0
 90
        0
176
     0
 90
        0
176
     0
 40
0.6
176
     0
 40
30.0
176
     0
 62
     7
420
 16777215
176
     0
 90
        1
176
     0
 90
        4
176
     0
 62
     7
176
     0
 62
   257
176
     0
 90
        1
176
     0
 90
        1
176
     0
 40
1.0
176
     0
 90
       10
176
     2
 62
     7
176
     0
 40
1.0
176
     0
 90
        1
176
     0
 90
        6
176
     0
 90
        2
176
     0
 62
     7
176
     0
 90
        5
176
     0
 90
        0
176
     0
 90
        0
176
     0
290
     0
176
     0
 90
        1
176
     0
 40
0.0
176
     0
 90
        0
176
     0
290
     0
176
     0
290
     1
176
     0
290
     1
176
     0
290
     0
176
     0
290
     0
176
     0
290
     0
176
     0
290
     0
176
     0
290
     0
176
     0
290
     0
176
     0
 90
       50
176
     0
 40
0.0
176
     0
 40
1.0
176
     0
 90
        0
176
     0
 62
    18
176
     0
 90
       50
176
     0
 90
        3
176
     0
 62
     5
420
      255
176
     0
290
     0
176
     0
 90
       50
176
     0
 90
       50
176
     0
 90
       50
176
     0
290
     0
176
     0
 90
       50
176
     0
 62
   256
176
     0
 40
1.0
176
     0
 90
        2
176
     0
  1
strokes_ogs.tif
176
     0
290
     0
176
     0
 40
1.0
176
     0
 40
1.0
176
     0
1001
ACAD
1000
AcDbSavedByObjectVersion
1070
     0
  0
VISUALSTYLE
  5
37
102
{ACAD_REACTORS
330
29
102
}
330
29
100
AcDbVisualStyle
  2
Linepattern
 70
    14
177
     3
291
     1
 70
    58
 90
        2
176
     1
 90
        2
176
     1
 90
        0
176
     1
 90
        0
176
     1
 40
0.6
176
     1
 40
30.0
176
     1
 62
     7
420
 16777215
176
     1
 90
        1
176
     1
 90
        4
176
     1
 62
     7
176
     1
 62
   257
176
     1
 90
        7
176
     1
 90
        7
176
     1
 40
1.0
176
     1
 90
        8
176
     1
 62
     7
176
     1
 40
1.0
176
     1
 90
        1
176
     1
 90
        6
176
     1
 90
        2
176
     1
 62
     7
176
     1
 90
        5
176
     1
 90
        0
176
     1
 90
        0
176
     1
290
     0
176
     1
 90
        1
176
     1
 40
0.0
176
     1
 90
        0
176
     1
290
     0
176
     1
290
     1
176
     1
290
     1
176
     1
290
     0
176
     1
290
     0
176
     1
290
     0
176
     1
290
     0
176
     1
290
     0
176
     1
290
     0
176
     1
 90
       50
176
     1
 40
0.0
176
     1
 40
1.0
176
     1
 90
        0
176
     1
 62
    18
176
     1
 90
       50
176
     1
 90
        3
176
     1
 62
     5
420
      255
176
     1
290
     0
176
     1
 90
       50
176
     1
 90
       50
176
     1
 90
       50
176
     1
290
     0
176
     1
 90
       50
176
     1
 62
   256
176
     0
 40
1.0
176
     0
 90
        2
176
     1
  1
strokes_ogs.tif
176
     1
290
     0
176
     1
 40
1.0
176
     1
 40
1.0
176
     1
1001
ACAD
1000
AcDbSavedByObjectVersion
1070
     0
  0
VISUALSTYLE
  5
40
102
{ACAD_REACTORS
330
29
102
}
330
29
100
AcDbVisualStyle
  2
OverhangOff
 70
    21
177
     3
291
     1
 70
    58
 90
        2
176
     0
 90
        2
176
     0
 90
        0
176
     0
 90
        0
176
     0
 40
0.6
176
     0
 40
30.0
176
     0
 62
     7
420
 16777215
176
     0
 90
        1
176
     0
 90
        4
176
     0
 62
     7
176
     0
 62
   257
176
     0
 90
        1
176
     0
 90
        1
176
     0
 40
1.0
176
     0
 90
        9
176
     2
 62
     7
176
     0
 40
1.0
176
     0
 90
        1
176
     0
 90
        6
176
     0
 90
        2
176
     0
 62
     7
176
     0
 90
        5
176
     0
 90
        0
176
     0
 90
        0
176
     0
290
     0
176
     0
 90
        1
176
     0
 40
0.0
176
     0
 90
        0
176
     0
290
     0
176
     0
290
     1
176
     0
290
     1
176
     0
290
     0
176
     0
290
     0
176
     0
290
     0
176
     0
290
     0
176
     0
290
     0
176
     0
290
     0
176
     0
 90
       50
176
     0
 40
0.0
176
     0
 40
1.0
176
     0
 90
        0
176
     0
 62
    18
176
     0
 90
       50
176
     0
 90
        3
176
     0
 62
     5
420
      255
176
     0
290
     0
176
     0
 90
       50
176
     0
 90
       50
176
     0
 90
       50
176
     0
290
     0
176
     0
 90
       50
176
     0
 62
   256
176
     0
 40
1.0
176
     0
 90
        2
176
     0
  1
strokes_ogs.tif
176
     0
290
     0
176
     0
 40
1.0
176
     0
 40
1.0
176
     0
1001
ACAD
1000
AcDbSavedByObjectVersion
1070
     0
  0
VISUALSTYLE
  5
33
102
{ACAD_REACTORS
330
29
102
}
330
29
100
AcDbVisualStyle
  2
Realistic
 70
     8
177
     3
291
     0
 70
    58
 90
        2
176
     1
 90
        3
176
     1
 90
        0
176
     1
 90
        2
176
     1
 40
0.6
176
     1
 40
30.0
176
     1
 62
     7
420
 16777215
176
     1
 90
        0
176
     1
 90
        0
176
     1
 62
     7
176
     1
 62
   257
176
     1
 90
        1
176
     1
 90
        1
176
     1
 40
1.0
176
     1
 90
        8
176
     1
 62
   257
176
     1
 40
1.0
176
     1
 90
        1
176
     1
 90
        6
176
     1
 90
        2
176
     1
 62
     7
176
     1
 90
        3
176
     1
 90
        0
176
     1
 90
        0
176
     1
290
     0
176
     1
 90
       13
176
     1
 40
0.0
176
     1
 90
        0
176
     1
290
     0
176
     1
290
     1
176
     1
290
     1
176
     1
290
     0
176
     1
290
     0
176
     1
290
     0
176
     1
290
     0
176
     1
290
     0
176
     1
290
     0
176
     1
 90
       50
176
     1
 40
0.0
176
     1
 40
1.0
176
     1
 90
        0
176
     1
 62
    18
176
     1
 90
       50
176
     1
 90
        3
176
     1
 62
     5
420
      255
176
     1
290
     0
176
     1
 90
       50
176
     1
 90
       50
176
     1
 90
       50
176
     1
290
     0
176
     1
 90
       50
176
     1
 62
   256
176
     0
 40
1.0
176
     0
 90
        2
176
     1
  1
strokes_ogs.tif
176
     1
290
     0
176
     1
 40
1.0
176
     1
 40
1.0
176
     1
1001
ACAD
1000
AcDbSavedByObjectVersion
1070
     0
  0
VISUALSTYLE
  5
3E
102
{ACAD_REACTORS
330
29
102
}
330
29
100
AcDbVisualStyle
  2
Shaded
 70
    27
177
     3
291
     0
 70
    58
 90
        2
176
     1
 90
        2
176
     1
 90
        1
176
     1
 90
        2
176
     1
 40
0.6
176
     1
 40
30.0
176
     1
 62
     7
420
 16777215
176
     1
 90
        0
176
     1
 90
        4
176
     1
 62
     7
176
     1
 62
   257
176
     1
 90
        1
176
     1
 90
        1
176
     1
 40
1.0
176
     1
 90
        8
176
     1
 62
   257
176
     1
 40
1.0
176
     1
 90
        1
176
     1
 90
        6
176
     1
 90
        2
176
     1
 62
     8
420
  7895160
176
     1
 90
        3
176
     1
 90
        0
176
     1
 90
        0
176
     1
290
     0
176
     1
 90
        5
176
     1
 40
0.0
176
     1
 90
        0
176
     1
290
     0
176
     1
290
     1
176
     1
290
     1
176
     1
290
     0
176
     1
290
     0
176
     1
290
     0
176
     1
290
     0
176
     1
290
     0
176
     1
290
     0
176
     1
 90
       50
176
     1
 40
0.0
176
     1
 40
1.0
176
     1
 90
        0
176
     1
 62
    18
176
     1
 90
       50
176
     1
 90
        3
176
     1
 62
     5
420
      255
176
     1
290
     0
176
     1
 90
       50
176
     1
 90
       50
176
     1
 90
       50
176
     1
290
     0
176
     1
 90
       50
176
     1
 62
   256
176
     0
 40
1.0
176
     0
 90
        2
176
     1
  1
strokes_ogs.tif
176
     1
290
     0
176
     1
 40
1.0
176
     1
 40
1.0
176
     1
1001
ACAD
1000
AcDbSavedByObjectVersion
1070
     0
  0
VISUALSTYLE
  5
3D
102
{ACAD_REACTORS
330
29
102
}
330
29
100
AcDbVisualStyle
  2
Shaded with edges
 70
    26
177
     3
291
     0
 70
    58
 90
        2
176
     1
 90
        2
176
     1
 90
        1
176
     1
 90
        2
176
     1
 40
0.6
176
     1
 40
30.0
176
     1
 62
     7
420
 16777215
176
     1
 90
        1
176
     1
 90
        2
176
     1
 62
     7
176
     1
 62
   257
176
     1
 90
        2
176
     1
 90
        1
176
     1
 40
1.0
176
     1
 90
        8
176
     1
 62
   257
176
     1
 40
1.0
176
     1
 90
        1
176
     1
 90
        6
176
     1
 90
        2
176
     1
 62
     7
176
     1
 90
        3
176
     1
 90
        0
176
     1
 90
        0
176
     1
290
     0
176
     1
 90
        5
176
     1
 40
0.0
176
     1
 90
        0
176
     1
290
     0
176
     1
290
     1
176
     1
290
     1
176
     1
290
     0
176
     1
290
     0
176
     1
290
     0
176
     1
290
     0
176
     1
290
     0
176
     1
290
     0
176
     1
 90
       50
176
     1
 40
0.0
176
     1
 40
1.0
176
     1
 90
        0
176
     1
 62
    18
176
     1
 90
       50
176
     1
 90
        3
176
     1
 62
     5
420
      255
176
     1
290
     0
176
     1
 90
       50
176
     1
 90
       50
176
     1
 90
       50
176
     1
290
     0
176
     1
 90
       50
176
     1
 62
   256
176
     0
 40
1.0
176
     0
 90
        2
176
     1
  1
strokes_ogs.tif
176
     1
290
     0
176
     1
 40
1.0
176
     1
 40
1.0
176
     1
1001
ACAD
1000
AcDbSavedByObjectVersion
1070
     0
  0
VISUALSTYLE
  5
3A
102
{ACAD_REACTORS
330
29
102
}
330
29
100
AcDbVisualStyle
  2
Shades of Gray
 70
    23
177
     3
291
     0
 70
    58
 90
        2
176
     1
 90
        2
176
     1
 90
        3
176
     1
 90
        0
176
     1
 40
0.6
176
     1
 40
30.0
176
     1
 62
     7
420
 16777215
176
     1
 90
        2
176
     1
 90
        2
176
     1
 62
     7
176
     1
 62
     7
176
     1
 90
        1
176
     1
 90
        1
176
     1
 40
40.0
176
     1
 90
        8
176
     1
 62
     7
176
     1
 40
1.0
176
     1
 90
        1
176
     1
 90
        6
176
     1
 90
        2
176
     1
 62
     7
176
     1
 90
        3
176
     1
 90
        0
176
     1
 90
        0
176
     1
290
     0
176
     1
 90
        1
176
     1
 40
0.0
176
     1
 90
        0
176
     1
290
     0
176
     1
290
     1
176
     1
290
     1
176
     1
290
     0
176
     1
290
     0
176
     1
290
     0
176
     1
290
     0
176
     1
290
     0
176
     1
290
     0
176
     1
 90
       50
176
     1
 40
0.0
176
     1
 40
1.0
176
     1
 90
        0
176
     1
 62
    18
176
     1
 90
       50
176
     1
 90
        3
176
     1
 62
     5
420
      255
176
     1
290
     0
176
     1
 90
       50
176
     1
 90
       50
176
     1
 90
       50
176
     1
290
     0
176
     1
 90
       50
176
     1
 62
   256
176
     0
 40
1.0
176
     0
 90
        2
176
     1
  1
strokes_ogs.tif
176
     1
290
     0
176
     1
 40
1.0
176
     1
 40
1.0
176
     1
1001
ACAD
1000
AcDbSavedByObjectVersion
1070
     0
  0
VISUALSTYLE
  5
3B
102
{ACAD_REACTORS
330
29
102
}
330
29
100
AcDbVisualStyle
  2
Sketchy
 70
    24
177
     3
291
     0
 70
    58
 90
        1
176
     1
 90
        2
176
     1
 90
        2
176
     1
 90
        0
176
     1
 40
0.6
176
     1
 40
30.0
176
     1
 62
     7
420
 16777215
176
     1
 90
        2
176
     1
 90
        2
176
     1
 62
     7
176
     1
 62
     7
176
     1
 90
        1
176
     1
 90
        1
176
     1
 40
40.0
176
     1
 90
       11
176
     1
 62
     7
176
     1
 40
1.0
176
     1
 90
        1
176
     1
 90
        6
176
     1
 90
        2
176
     1
 62
     7
176
     1
 90
        6
176
     1
 90
        0
176
     1
 90
        0
176
     1
290
     0
176
     1
 90
        1
176
     1
 40
0.0
176
     1
 90
        0
176
     1
290
     0
176
     1
290
     1
176
     1
290
     1
176
     1
290
     0
176
     1
290
     0
176
     1
290
     0
176
     1
290
     0
176
     1
290
     0
176
     1
290
     0
176
     1
 90
       50
176
     1
 40
0.0
176
     1
 40
1.0
176
     1
 90
        0
176
     1
 62
    18
176
     1
 90
       50
176
     1
 90
        3
176
     1
 62
     5
420
      255
176
     1
290
     0
176
     1
 90
       50
176
     1
 90
       50
176
     1
 90
       50
176
     1
290
     0
176
     1
 90
       50
176
     1
 62
   256
176
     0
 40
1.0
176
     0
 90
        2
176
     1
  1
strokes_ogs.tif
176
     1
290
     0
176
     1
 40
1.0
176
     1
 40
1.0
176
     1
1001
ACAD
1000
AcDbSavedByObjectVersion
1070
     0
  0
VISUALSTYLE
  5
36
102
{ACAD_REACTORS
330
29
102
}
330
29
100
AcDbVisualStyle
  2
Thicken
 70
    13
177
     3
291
     1
 70
    58
 90
        2
176
     1
 90
        2
176
     1
 90
        0
176
     1
 90
        0
176
     1
 40
0.6
176
     1
 40
30.0
176
     1
 62
     7
420
 16777215
176
     1
 90
        1
176
     1
 90
        4
176
     1
 62
     7
176
     1
 62
   257
176
     1
 90
        1
176
     1
 90
        1
176
     1
 40
1.0
176
     1
 90
       12
176
     1
 62
     7
176
     1
 40
1.0
176
     1
 90
        1
176
     1
 90
        6
176
     1
 90
        2
176
     1
 62
     7
176
     1
 90
        5
176
     1
 90
        0
176
     1
 90
        0
176
     1
290
     0
176
     1
 90
        1
176
     1
 40
0.0
176
     1
 90
        0
176
     1
290
     0
176
     1
290
     1
176
     1
290
     1
176
     1
290
     0
176
     1
290
     0
176
     1
290
     0
176
     1
290
     0
176
     1
290
     0
176
     1
290
     0
176
     1
 90
       50
176
     1
 40
0.0
176
     1
 40
1.0
176
     1
 90
        0
176
     1
 62
    18
176
     1
 90
       50
176
     1
 90
        3
176
     1
 62
     5
420
      255
176
     1
290
     0
176
     1
 90
       50
176
     1
 90
       50
176
     1
 90
       50
176
     1
290
     0
176
     1
 90
       50
176
     1
 62
   256
176
     0
 40
1.0
176
     0
 90
        2
176
     1
  1
strokes_ogs.tif
176
     1
290
     0
176
     1
 40
1.0
176
     1
 40
1.0
176
     1
1001
ACAD
1000
AcDbSavedByObjectVersion
1070
     0
  0
VISUALSTYLE
  5
30
102
{ACAD_REACTORS
330
29
102
}
330
29
100
AcDbVisualStyle
  2
Wireframe
 70
     5
177
     3
291
     0
 70
    58
 90
        0
176
     1
 90
        2
176
     1
 90
        0
176
     1
 90
        0
176
     1
 40
0.6
176
     1
 40
30.0
176
     1
 62
     7
420
 16777215
176
     1
 90
        1
176
     1
 90
        4
176
     1
 62
     7
176
     1
 62
   257
176
     1
 90
        1
176
     1
 90
        1
176
     1
 40
1.0
176
     1
 90
        0
176
     1
 62
   257
176
     1
 40
1.0
176
     1
 90
        1
176
     1
 90
        6
176
     1
 90
        2
176
     1
 62
     7
176
     1
 90
        3
176
     1
 90
        0
176
     1
 90
        0
176
     1
290
     0
176
     1
 90
        1
176
     1
 40
0.0
176
     1
 90
        0
176
     1
290
     0
176
     1
290
     1
176
     1
290
     1
176
     1
290
     0
176
     1
290
     0
176
     1
290
     0
176
     1
290
     0
176
     1
290
     0
176
     1
290
     0
176
     1
 90
       50
176
     1
 40
0.0
176
     1
 40
1.0
176
     1
 90
        0
176
     1
 62
    18
176
     1
 90
       50
176
     1
 90
        3
176
     1
 62
     5
420
      255
176
     1
290
     0
176
     1
 90
       50
176
     1
 90
       50
176
     1
 90
       50
176
     1
290
     0
176
     1
 90
       50
176
     1
 62
   256
176
     0
 40
1.0
176
     0
 90
        2
176
     1
  1
strokes_ogs.tif
176
     1
290
     0
176
     1
 40
1.0
176
     1
 40
1.0
176
     1
1001
ACAD
1000
AcDbSavedByObjectVersion
1070
     0
  0
VISUALSTYLE
  5
3C
102
{ACAD_REACTORS
330
29
102
}
330
29
100
AcDbVisualStyle
  2
X-Ray
 70
    25
177
     3
291
     0
 70
    58
 90
        2
176
     1
 90
        2
176
     1
 90
        1
176
     1
 90
        1
176
     1
 40
0.5
176
     1
 40
30.0
176
     1
 62
     7
420
 16777215
176
     1
 90
        1
176
     1
 90
        0
176
     1
 62
     7
176
     1
 62
   257
176
     1
 90
        1
176
     1
 90
        1
176
     1
 40
1.0
176
     1
 90
        8
176
     1
 62
     7
176
     1
 40
1.0
176
     1
 90
        1
176
     1
 90
        6
176
     1
 90
        2
176
     1
 62
     7
176
     1
 90
        3
176
     1
 90
        0
176
     1
 90
        0
176
     1
290
     0
176
     1
 90
       13
176
     1
 40
0.0
176
     1
 90
        0
176
     1
290
     0
176
     1
290
     1
176
     1
290
     1
176
     1
290
     0
176
     1
290
     0
176
     1
290
     0
176
     1
290
     0
176
     1
290
     0
176
     1
290
     0
176
     1
 90
       50
176
     1
 40
0.0
176
     1
 40
1.0
176
     1
 90
        0
176
     1
 62
    18
176
     1
 90
       50
176
     1
 90
        3
176
     1
 62
     5
420
      255
176
     1
290
     0
176
     1
 90
       50
176
     1
 90
       50
176
     1
 90
       50
176
     1
290
     0
176
     1
 90
       50
176
     1
 62
   256
176
     0
 40
1.0
176
     0
 90
        2
176
     1
  1
strokes_ogs.tif
176
     1
290
     0
176
     1
 40
1.0
176
     1
 40
1.0
176
     1
1001
ACAD
1000
AcDbSavedByObjectVersion
1070
     0
  0
DICTIONARYVAR
  5
923
102
{ACAD_REACTORS
330
91E
102
}
330
91E
100
DictionaryVariables
280
     0
  1
0
  0
DICTIONARYVAR
  5
924
102
{ACAD_REACTORS
330
91E
102
}
330
91E
100
DictionaryVariables
280
     0
  1
1:1
  0
DICTIONARYVAR
  5
920
102
{ACAD_REACTORS
330
91E
102
}
330
91E
100
DictionaryVariables
280
     0
  1
STANDARD
  0
DICTIONARYVAR
  5
91F
102
{ACAD_REACTORS
330
91E
102
}
330
91E
100
DictionaryVariables
280
     0
  1
STANDARD
  0
DICTIONARYVAR
  5
921
102
{ACAD_REACTORS
330
91E
102
}
330
91E
100
DictionaryVariables
280
     0
  1
Imperial24
  0
DICTIONARYVAR
  5
922
102
{ACAD_REACTORS
330
91E
102
}
330
91E
100
DictionaryVariables
280
     0
  1
Imperial24
  0
DICTIONARY
  5
1A
330
19
100
AcDbDictionary
280
     1
281
     1
  3
BUMPTILE
360
1C
  3
DIFFUSETILE
360
1B
  3
OPACITYTILE
360
1F
  3
REFLECTIONTILE
360
1E
  3
REFRACTIONTILE
360
20
  3
SPECULARTILE
360
1D
  0
DICTIONARY
  5
12
330
11
100
AcDbDictionary
280
     1
281
     1
  3
BUMPTILE
360
14
  3
DIFFUSETILE
360
13
  3
OPACITYTILE
360
17
  3
REFLECTIONTILE
360
16
  3
REFRACTIONTILE
360
18
  3
SPECULARTILE
360
15
  0
DICTIONARY
  5
22
330
21
100
AcDbDictionary
280
     1
281
     1
  3
BUMPTILE
360
24
  3
DIFFUSETILE
360
23
  3
OPACITYTILE
360
27
  3
REFLECTIONTILE
360
26
  3
REFRACTIONTILE
360
28
  3
SPECULARTILE
360
25
  0
DICTIONARY
  5
925
330
65
100
AcDbDictionary
280
     1
281
     1
  3
ACAD_ROUNDTRIP_2008_TABLESTYLE_CELLSTYLEMAP
360
97D
  0
XRECORD
  5
1C
102
{ACAD_REACTORS
330
1A
102
}
330
1A
100
AcDbXrecord
280
     1
270
     1
271
     1
  0
XRECORD
  5
1B
102
{ACAD_REACTORS
330
1A
102
}
330
1A
100
AcDbXrecord
280
     1
270
     1
271
     1
  0
XRECORD
  5
1F
102
{ACAD_REACTORS
330
1A
102
}
330
1A
100
AcDbXrecord
280
     1
270
     1
271
     1
  0
XRECORD
  5
1E
102
{ACAD_REACTORS
330
1A
102
}
330
1A
100
AcDbXrecord
280
     1
270
     1
271
     1
  0
XRECORD
  5
20
102
{ACAD_REACTORS
330
1A
102
}
330
1A
100
AcDbXrecord
280
     1
270
     1
271
     1
  0
XRECORD
  5
1D
102
{ACAD_REACTORS
330
1A
102
}
330
1A
100
AcDbXrecord
280
     1
270
     1
271
     1
  0
XRECORD
  5
14
102
{ACAD_REACTORS
330
12
102
}
330
12
100
AcDbXrecord
280
     1
270
     1
271
     1
  0
XRECORD
  5
13
102
{ACAD_REACTORS
330
12
102
}
330
12
100
AcDbXrecord
280
     1
270
     1
271
     1
  0
XRECORD
  5
17
102
{ACAD_REACTORS
330
12
102
}
330
12
100
AcDbXrecord
280
     1
270
     1
271
     1
  0
XRECORD
  5
16
102
{ACAD_REACTORS
330
12
102
}
330
12
100
AcDbXrecord
280
     1
270
     1
271
     1
  0
XRECORD
  5
18
102
{ACAD_REACTORS
330
12
102
}
330
12
100
AcDbXrecord
280
     1
270
     1
271
     1
  0
XRECORD
  5
15
102
{ACAD_REACTORS
330
12
102
}
330
12
100
AcDbXrecord
280
     1
270
     1
271
     1
  0
XRECORD
  5
24
102
{ACAD_REACTORS
330
22
102
}
330
22
100
AcDbXrecord
280
     1
270
     1
271
     1
  0
XRECORD
  5
23
102
{ACAD_REACTORS
330
22
102
}
330
22
100
AcDbXrecord
280
     1
270
     1
271
     1
  0
XRECORD
  5
27
102
{ACAD_REACTORS
330
22
102
}
330
22
100
AcDbXrecord
280
     1
270
     1
271
     1
  0
XRECORD
  5
26
102
{ACAD_REACTORS
330
22
102
}
330
22
100
AcDbXrecord
280
     1
270
     1
271
     1
  0
XRECORD
  5
28
102
{ACAD_REACTORS
330
22
102
}
330
22
100
AcDbXrecord
280
     1
270
     1
271
     1
  0
XRECORD
  5
25
102
{ACAD_REACTORS
330
22
102
}
330
22
100
AcDbXrecord
280
     1
270
     1
271
     1
  0
CELLSTYLEMAP
  5
97D
102
{ACAD_REACTORS
330
925
102
}
330
925
100
AcDbCellStyleMap
 90
        3
300
CELLSTYLE
  1
TABLEFORMAT_BEGIN
 90
        5
170
     1
 91
        0
 92
    32768
 62
   257
 93
        1
300
CONTENTFORMAT
  1
CONTENTFORMAT_BEGIN
 90
        0
 91
        0
 92
      512
 93
        0
300

 40
0.0
140
1.0
 94
        5
 62
     0
340
55
144
0.25
309
CONTENTFORMAT_END
171
     1
301
MARGIN
  1
CELLMARGIN_BEGIN
 40
1.5
 40
1.5
 40
1.5
 40
1.5
 40
0.18
 40
0.18
309
CELLMARGIN_END
 94
        6
 95
        1
302
GRIDFORMAT
  1
GRIDFORMAT_BEGIN
 90
        0
 91
        1
 62
     0
 92
       -2
340
0
 93
        0
 40
0.045
309
GRIDFORMAT_END
 95
        2
302
GRIDFORMAT
  1
GRIDFORMAT_BEGIN
 90
        0
 91
        1
 62
     0
 92
       -2
340
0
 93
        0
 40
0.045
309
GRIDFORMAT_END
 95
        4
302
GRIDFORMAT
  1
GRIDFORMAT_BEGIN
 90
        0
 91
        1
 62
     0
 92
       -2
340
0
 93
        0
 40
0.045
309
GRIDFORMAT_END
 95
        8
302
GRIDFORMAT
  1
GRIDFORMAT_BEGIN
 90
        0
 91
        1
 62
     0
 92
       -2
340
0
 93
        0
 40
0.045
309
GRIDFORMAT_END
 95
       16
302
GRIDFORMAT
  1
GRIDFORMAT_BEGIN
 90
        0
 91
        1
 62
     0
 92
       -2
340
0
 93
        0
 40
0.045
309
GRIDFORMAT_END
 95
       32
302
GRIDFORMAT
  1
GRIDFORMAT_BEGIN
 90
        0
 91
        1
 62
     0
 92
       -2
340
0
 93
        0
 40
0.045
309
GRIDFORMAT_END
309
TABLEFORMAT_END
  1
CELLSTYLE_BEGIN
 90
        1
 91
        1
300
_TITLE
309
CELLSTYLE_END
300
CELLSTYLE
  1
TABLEFORMAT_BEGIN
 90
        5
170
     1
 91
        0
 92
        0
 62
   257
 93
        1
300
CONTENTFORMAT
  1
CONTENTFORMAT_BEGIN
 90
        0
 91
        0
 92
      512
 93
        0
300

 40
0.0
140
1.0
 94
        5
 62
     0
340
55
144
0.18
309
CONTENTFORMAT_END
171
     1
301
MARGIN
  1
CELLMARGIN_BEGIN
 40
1.5
 40
1.5
 40
1.5
 40
1.5
 40
0.18
 40
0.18
309
CELLMARGIN_END
 94
        6
 95
        1
302
GRIDFORMAT
  1
GRIDFORMAT_BEGIN
 90
        0
 91
        1
 62
     0
 92
       -2
340
0
 93
        0
 40
0.045
309
GRIDFORMAT_END
 95
        2
302
GRIDFORMAT
  1
GRIDFORMAT_BEGIN
 90
        0
 91
        1
 62
     0
 92
       -2
340
0
 93
        0
 40
0.045
309
GRIDFORMAT_END
 95
        4
302
GRIDFORMAT
  1
GRIDFORMAT_BEGIN
 90
        0
 91
        1
 62
     0
 92
       -2
340
0
 93
        0
 40
0.045
309
GRIDFORMAT_END
 95
        8
302
GRIDFORMAT
  1
GRIDFORMAT_BEGIN
 90
        0
 91
        1
 62
     0
 92
       -2
340
0
 93
        0
 40
0.045
309
GRIDFORMAT_END
 95
       16
302
GRIDFORMAT
  1
GRIDFORMAT_BEGIN
 90
        0
 91
        1
 62
     0
 92
       -2
340
0
 93
        0
 40
0.045
309
GRIDFORMAT_END
 95
       32
302
GRIDFORMAT
  1
GRIDFORMAT_BEGIN
 90
        0
 91
        1
 62
     0
 92
       -2
340
0
 93
        0
 40
0.045
309
GRIDFORMAT_END
309
TABLEFORMAT_END
  1
CELLSTYLE_BEGIN
 90
        2
 91
        1
300
_HEADER
309
CELLSTYLE_END
300
CELLSTYLE
  1
TABLEFORMAT_BEGIN
 90
        5
170
     1
 91
        0
 92
        0
 62
   257
 93
        1
300
CONTENTFORMAT
  1
CONTENTFORMAT_BEGIN
 90
        0
 91
        0
 92
      512
 93
        0
300

 40
0.0
140
1.0
 94
        2
 62
     0
340
55
144
0.18
309
CONTENTFORMAT_END
171
     1
301
MARGIN
  1
CELLMARGIN_BEGIN
 40
1.5
 40
1.5
 40
1.5
 40
1.5
 40
0.18
 40
0.18
309
CELLMARGIN_END
 94
        6
 95
        1
302
GRIDFORMAT
  1
GRIDFORMAT_BEGIN
 90
        0
 91
        1
 62
     0
 92
       -2
340
0
 93
        0
 40
0.045
309
GRIDFORMAT_END
 95
        2
302
GRIDFORMAT
  1
GRIDFORMAT_BEGIN
 90
        0
 91
        1
 62
     0
 92
       -2
340
0
 93
        0
 40
0.045
309
GRIDFORMAT_END
 95
        4
302
GRIDFORMAT
  1
GRIDFORMAT_BEGIN
 90
        0
 91
        1
 62
     0
 92
       -2
340
0
 93
        0
 40
0.045
309
GRIDFORMAT_END
 95
        8
302
GRIDFORMAT
  1
GRIDFORMAT_BEGIN
 90
        0
 91
        1
 62
     0
 92
       -2
340
0
 93
        0
 40
0.045
309
GRIDFORMAT_END
 95
       16
302
GRIDFORMAT
  1
GRIDFORMAT_BEGIN
 90
        0
 91
        1
 62
     0
 92
       -2
340
0
 93
        0
 40
0.045
309
GRIDFORMAT_END
 95
       32
302
GRIDFORMAT
  1
GRIDFORMAT_BEGIN
 90
        0
 91
        1
 62
     0
 92
       -2
340
0
 93
        0
 40
0.045
309
GRIDFORMAT_END
309
TABLEFORMAT_END
  1
CELLSTYLE_BEGIN
 90
        3
 91
        2
300
_DATA
309
CELLSTYLE_END
  0
ENDSEC
  0
EOF
